Song name
# A B C D E F G H I J K L M N O P Q R S T U V W X Y Z

Wolfgang - Trenta tab

Help us improve GuitareTab! Take a short survey!
  

  Wolfgang - Trenta intro
  from the album "Black Mantra"
  Jeff, Baguio City

  Intro:

  Eb|------------------|
  Bb|------------------|
  Gb|------------------|
  Db|------------------|
  Ab|------5-4-0-1-----|
  Eb|----3-------------|


  Eb|------------------6--|
  Bb|------------------6--|
  Gb|------------------6--|
  Db|----5--8--5-3--5-----|
  Ab|----5--8--5-3--5-----|
  Eb|----3--6-------3-----|
   
Related for Trenta tab