Song name
# A B C D E F G H I J K L M N O P Q R S T U V W X Y Z

Wolfmother - The Violence Of The Sun tab

Help us improve GuitareTab! Take a short survey!
Artist: Wolfmother
Song: Violence Of The Sun
Album: ????

PLEASE NOTICE THAT THIS IS NOT THE ALBUM VERSION (SINCE IT'S NOT OUT YET) 
IT'S THE ANDY WARHOL SHOW VERSION !!!! 
SO IT'S A LIVE VERSION !!!
FEEL FREE FOR ANY SUGGESTIONS OR COMMENTS OR ANYTHING...


Standard Tuning


Intro: (with flanger, and Stockdale changes his rhytym a bit sometimes...)

 (E5)
|--------------------------|
|--------------------------|  (x7)
|--------------------------|
|--------------------------|
|--------------------------|
|-0-00000-00000-00000-0000-|


 (E5)         F#5 G G#5 A A#5 B5
|-------------------------------|
|-------------------------------|  
|-------------------------------|
|-------------------------------|
|--------------4--5--6--7--8--9-|
|-0-00000-0000-2--3--4--5--6--7-|


Intro (pt.2):

|--------------------------|--------------------------|
|--------------------------|--------------------------| (x2)
|--------------------------|--------------------------|
|--------------------------|--------------------------|
|--------------------------|--------------4-5-6-7-8-9-|
|-0-00000-00000-00000-0000-|-0-00000-0000-2-3-4-5-6-7-|


Verse:

( only bass play this -------------------)

|--------------------------|--------------------------|
|--------------------------|--------------------------| (x4)
|--------------------------|--------------------------|
|--------------------------|--------------------------|
|--------------------------|--------------4-5-6-7-8-9-|
|-0-00000-00000-00000-0000-|-0-00000-0000-2-3-4-5-6-7-|



Pre-Chorus:

|---------------------------|--------------------------|
|---------------------------|--------------------------| (X3)
|---------------------------|--------------------------|
|---------------------------|--------------------------|
|--------------5--5--5--5---|--------------------------|
|-0-00-00-00-0---7--7--7----|-0-00-00-00-0555555555532-|

|---------------------------|
|---------------------------|
|---------------------------|
|---------------------------|
|--------------5--5--5--5---|
|-0-00-00-00-0---7--7--7----|


Chorus: (listen carefully to the video, you can see Stockdale playing fast the chords while Ross 
         just keep the chord going (on organ))

(fast)

 E5
|-------------------------------------|
|-------------------------------------|(x2)
|-------------------------------------|
|-14-14-14-14-14-14-14-14-14-14-14-14-|
|-14-14-14-14-14-14-14-14-14-14-14-14-|
|-12-12-12-12-12-12-12-12-12-12-12-12-|

 C5
|-------------------------------------|
|-------------------------------------|(x2)
|-------------------------------------|
|-10-10-10-10-10-10-10-10-10-10-10-10-|
|-10-10-10-10-10-10-10-10-10-10-10-10-|
|-8--8--8--8--8--8--8--8--8--8--8--8--|

 A5    G5 A5   G5 A5   G5 A5   G5 A5   G5 A5   G5 A5 B5 C5  D5
|---------------------------------------------------------------|
|---------------------------------------------------------------|
|---------------------------------------------------------------|
|-7-7--55/7-7--55/7-7--55/7-7--55/7-7--55/7-7--55/7--9--10--12--|
|-7-7--55/7-7--55/7-7--55/7-7--55/7-7--55/7-7--55/7--9--10--12--|
|-5-5--33/5-5--33/5-5--33/5-5--33/5-5--33/5-5--33/5--7--8---10--|

Repeat Chorus 2 times

Repeat Intro (pt.2)

Repeat Verse

Repeat Pre-Chorus

Repeat Chorus 3 times


Bridge (3 times): (just played by Ross at first, then followed by Stockdale 
                   the second and third time)


(Ross part and remember it's on bass!!)
|----------------------------------------------------------------------------|
|----------------------------------------------------------------------------|
|----------------------------------------------------------------------------|
|-------12h14--14--14--14--14--12--------------------------------------------|
|-12h14--------------------------14--14--14--14-x12--12--12--12h14-----------|
|-----------------------------------------------------------------12--12--12-|


(Stockdale part)
|----------------------------------------------------------------------------|
|----------------------------------------------------------------------------| 
|----------------------------------------------------------------------------|
|--------4h5---5---5---5---5---x-4---4---4-----------------------------------|
|--5h7---------------------------------------5---5---5---5---5----7---7---7--|
|----------------------------------------------------------------------------|


Guitar Solo: (Ross is playing the bridge 4 times)

Since it's a live version, and we still don't know how the real thing will be,
I won't tab this solo, and it's pretty hard to hear too...
But the solo is in E minor, so you can improvise for now LOL...


Bridge (return): Ross plays the bridge 2 times while Stockdale play this:


|----------------------------------------------------------------------------|
|-----------------------------------------13--13--13--13--13--12-12--12--12--|
|-------11h12--12--12--12--11-11--11--11-------------------------------------|
|-12h14----------------------------------------------------------------------|
|----------------------------------------------------------------------------|
|----------------------------------------------------------------------------|


|-------------------------------------------------------------12-12--12---//|
|-----------------------------------------13--13--13--13--13--------------//|
|-------11h12--12--12--12--11-11--11--11----------------------------------//|
|-12h14-------------------------------------------------------------------//|
|-------------------------------------------------------------------------//|
|-------------------------------------------------------------------------//|

//means a big slide...LOL


Repeat Chorus (ONLY 2 TIMES)

Then finish with an E5 chord right after the D5 chord in the chorus :

E5
|----|
|----| 
|----|
|-14-|
|-14-|
|-12-| 

ENJOY !!!!!
Related for The Violence Of The Sun tab