Song name
# A B C D E F G H I J K L M N O P Q R S T U V W X Y Z

Wolfmother - Witchcraft tab

This is my first tab ever so if you have any problems or questions, just email me at
clarkey66_87@hotmail.com
Witchcraft is off wolfmothers first album very creatively titled Wolfmother. Just listen
the song to get the rhythem. I realise that most other versions use 7-5 instead of 12-10 
i prefer this to help with increasing your ability to go up and down the neck. Have Fun.

Hope You Enjoy.

Tuning: Standard Tuning

Intro:
e:-------------------------------|
b:-------------------------------|
g:-------------------------------| x4
D:-------------------------------|
A:---------10--------------------|
E:-12-10-12--12-10--5-5-3-5-3-0--|

Verse 1:
e:------------------------------------------------|
b:------------------------------------------------|
g:------------------------------------------------| x3
D:------------------------------------------------|
A:--------------------------10--------------------|
E:-12---------------12-10-12--12-10--5-5-3-5-3-0--|

Pre Chorus:
e:---------------------------------------------|
b:---------------------------------------------|
g:---------------------------------------------| x1
D:-10--10-10--10-10--10-10--9--9-9--12--12-12--|
A:-10--10-10--10-10--10-10--9--9-9--12--12-12--|
E:-8---8--8---8--8---8--8---7--7-7--10--10-10--|

Chorus:
e:------------------------------|
b:------------------------------|
g:-------9-------11-------13----| Repeat whole Chorus 2x
D:-11----9-11----11-11----13-11-|
A:-11----7-11----9--11----11-11-|
E:-9-------9--------9--------9--|

e:-------------------------------------------------------------------------|
b:-12-12-12-12-11-11-12-12-12-12-11-11-12-12-12-12-11-11-12-12-12-12-11-11-|
g:-------------------------------------------------------------------------|
D:-------------------------------------------------------------------------|
A:-------------------------------------------------------------------------|
E:-------------------------------------------------------------------------|

Bridge:
e:--------------------------------|
b:--------------------------------|
g:--------------------------------| x2
D:--------------------------------|
A:----------10--------------------|
E:-12-10-12---12-10--5-5-3-5-3-0--|

Verse 2:
e:-------------------------------------------------|
b:-------------------------------------------------|
g:-------------------------------------------------| x3
D:-------------------------------------------------|
A:---------------------------10--------------------|
E:-12---------------12-10-12---12-10--5-5-3-5-3-0--|

Pre Chorus:
e:---------------------------------------------|
b:---------------------------------------------|
g:---------------------------------------------| x1
D:-10--10-10--10-10--10-10--9--9-9--12--12-12--|
A:-10--10-10--10-10--10-10--9--9-9--12--12-12--|
E:-8---8--8---8--8---8--8---7--7-7--10--10-10--|

Chorus:
e:------------------------------|
b:------------------------------|
g:-------9-------11-------13----| Repeat whole Chorus 2x
D:-11----9-11----11-11----13-11-|
A:-11----7-11----9--11----11-11-|
E:-9-------9--------9--------9--|

e:-------------------------------------------------------------------------|
b:-12-12-12-12-11-11-12-12-12-12-11-11-12-12-12-12-11-11-12-12-12-12-11-11-|
g:-------------------------------------------------------------------------|
D:-------------------------------------------------------------------------|
A:-------------------------------------------------------------------------|
E:-------------------------------------------------------------------------|

Pre Solo:
e:-----------------|
b:-----------------|
g:-----------------| x1
D:-9------------9--|
A:-9------------9--|
E:-7------------7--|

Solo 1:
e:-------------------------------|
b:-------------------------------|
g:-------------------------------| x4
D:-------------------------------|(I like to throw in a pinch harmonic on
A:---------10--------------------|the 10th fret on string A.Just suggestin.)
E:-12-10-12--12-10--5-5-3-5-3-0--|

Pre Chorus:
e:---------------------------------------------|
b:---------------------------------------------|
g:---------------------------------------------| x1
D:-10--10-10--10-10--10-10--9--9-9--12--12-12--|
A:-10--10-10--10-10--10-10--9--9-9--12--12-12--|
E:-8---8--8---8--8---8--8---7--7-7--10--10-10--|

Chorus:
e:------------------------------|
b:------------------------------|
g:-------9-------11-------13----| Repeat whole Chorus 2x
D:-11----9-11----11-11----13-11-|
A:-11----7-11----9--11----11-11-|
E:-9-------9--------9--------9--|

e:-------------------------------------------------------------------------|
b:-12-12-12-12-11-11-12-12-12-12-11-11-12-12-12-12-11-11-12-12-12-12-11-11-|
g:-------------------------------------------------------------------------|
D:-------------------------------------------------------------------------|
A:-------------------------------------------------------------------------|
E:-------------------------------------------------------------------------|

Solo 2(ending):
e:-------------------------------|
b:-------------------------------|
g:-------------------------------| x4
D:-------------------------------|
A:---------10--------------------|
E:-12-10-12--12-10--5-5-3-5-3-0--|
Tap to rate this tab
# A B C D E F G H I J K L M N O P Q R S T U V W X Y Z