Song name
# A B C D E F G H I J K L M N O P Q R S T U V W X Y Z

Wolfmother - Women tab

I think this is right.

Main riff:
e---------------------------------------------------------------------------|
B---------------------------------------------------------------------------|
G---99-99-99----------99-99-99----------99-99-99----------------------------|
D---99-99-99----------99-99-99----------99-99-99----------7-----5-----------|
A---77-77-77-------5--77-77-77-------5--77-77-77-------5--7-----5-----------|
E------------5--7--------------5--7--------------5--7-----5-----3-----------|

chorus:
e---------------------------------------------------------------------------|
B---------------------------------------------------------------------------|
G---------------------------------------------------------------------------|
D--7-----10----7-----10----9-----12-----------------------------------------|
A--7-----10----7-----10----9-----12-----------------------------------------|
E--5-----8-----5-----8-----7-----10-----------------------------------------|


Main riff

chorus

guitar riff:
e----------------------------------------------\----/-___-------------------|
B-----------------------------------------------\--/-/---\------------------|
G------------------------------------------------\/------/------------------|
D------------------------------------------------/\-----/-------------------|
A----7-5---7-5---7-5---0---7-5---7-5---7-5------/--\---/____----------------|
E--------7-----7-----7---------7-----7-----7-0-/----\-----------------------|


Part 2:

e---------------------------------------------------------------------------|
B---------------------------------------------------------------------------|
G---------------------------------------------------------------------------|
D---------------------------------------------------------------------------|
A----------5-------5-------5-------7----------------------------------------|
E----0-5-7---0-5-7---0-5-7---0-5-7-------x-8--------------------------------|

main riff

chorus

Guitar riff x 1
Tap to rate this tab
# A B C D E F G H I J K L M N O P Q R S T U V W X Y Z