Song name
# A B C D E F G H I J K L M N O P Q R S T U V W X Y Z

Wolfmother - New Moon Rising tab

Artist: Wolfmother
Song: New Moon Rising
Album: Cosmic Egg
Tuning: Standard ( E A D G B e )
Tabbed By: guitartiger

Intro:

e|---------------------------|
B|---------------------------|
G|---------------------------|
D|-----0-2b-0----------------|
A|--0-2------2-0-2--2--------|
E|---------------------------|X2 

e|---------------------------|---------------------------|
B|---------------------------|---------------------------|
G|---------------------------|---------------------------|
D|-----0-2b-0-----0------0-2b|0--------------------------|
A|--0-2------2-0-2-2--0-2----|-2-0-2--2-0-2/-------------|
E|---------------------------|---------------------------|

(slide at the end)

Verse 1:

(Drums and Vocals Break)
 
Then...

e|---------------------------|
B|---------------------------|
G|---------------------------|
D|---------------------------|
A|--7--9---------------------|
E|--5--7---------------------|X3

Main Riff:

e|---------------------------|---------------------------|
B|---------------------------|---------------------------|
G|---------------------------|-------7-9b11-7------------|
D|--/9-7----------------/9-7-|----7-9--------9-----------|
A|------9-7p9p7-5-7-5-------9|-7-9-----------------------|
E|-------------------7-7-----|---------------------------|X2

Chorus:

e|---------------------------|---------------------------|
B|---------------------------|------10-12----------------|
G|--------7-7----7-9----7-9--|-11-11---------------------|
D|--9--7-9-9--7-9-9--7-9-----|---------------------------|
A|---------------------------|---------------------------|
E|---------------------------|---------------------------|X2

Verse 2:

(Drums and Vocals Break)
 
Then...

e|---------------------------|
B|---------------------------|
G|---------------------------|
D|---------------------------|
A|--7--9---------------------|
E|--5--7---------------------|X3

Main Riff:

e|---------------------------|---------------------------|
B|---------------------------|---------------------------|
G|---------------------------|-------7-9b11-7------------|
D|--/9-7----------------/9-7-|----7-9--------9-----------|
A|------9-7p9p7-5-7-5-------9|-7-9-----------------------|
E|-------------------7-7-----|---------------------------|X2

Chorus:

e|---------------------------|---------------------------|
B|---------------------------|------10-12----------------|
G|--------7-7----7-9----7-9--|-11-11---------------------|
D|--9--7-9-9--7-9-9--7-9-----|---------------------------|
A|---------------------------|---------------------------|
E|---------------------------|---------------------------|X2

Solo:

Guitar 1 continues playing the chorus riff while Guitar 2 does this...

e|---------------------------|---------------------------|
B|--17b19-15-----17b19-15----|--17b19-15--------15--15-17|
G|----------16-14---------16-|14--------16-14-16--16-----|
D|---------------------------|---------------------------|
A|---------------------------|---------------------------|
E|---------------------------|---------------------------|

e|---------------------------|---------------------------|
B|--17b19-15--17b19-15-----17|b19-15--------17b19-15-----|
G|----------16--------16-14--|------16-14-16--------16---|
D|---------------------------|---------------------------|
A|---------------------------|---------------------------|
E|---------------------------|---------------------------|

e|---------------------------|
B|-------15--15-17-17b19-15--|
G|--14-16--16----------------|
D|---------------------------|
A|---------------------------|
E|---------------------------|

Intro Riff:


e|---------------------------|---------------------------|
B|---------------------------|---------------------------|
G|---------------------------|---------------------------|
D|--2b-0------------0-2b-0---|---------0-2b-0-----0------|
A|------2-0-2--2-0-2------2-0|-2--2-0-2------2-0-2-2--0-2|
E|---------------------------|---------------------------|

e|---------------------------|
B|---------------------------|
G|---------------------------|
D|-0-2b-0------------0-------|
A|-------2-0-2--2-0-2--------|
E|---------------------------|

(Lower Volume)

e|---------------------------|---------------------------|
B|---------------------------|---------------------------|
G|---------------------------|---------------------------|
D|--2b-0------------0-2b-0---|---------0-2b-0-----0------|
A|------2-0-2--2-0-2------2-0|-2--2-0-2------2-0-2-2--0-2|
E|---------------------------|---------------------------|

e|---------------------------|
B|---------------------------|
G|---------------------------|
D|-0-2b-0------------0-------|
A|-------2-0-2--2-0-2--------|
E|---------------------------|X2

Main Riff:

e|---------------------------|---------------------------|
B|---------------------------|---------------------------|
G|---------------------------|-------7-9b11-7------------|
D|--/9-7----------------/9-7-|----7-9--------9-----------|
A|------9-7p9p7-5-7-5-------9|-7-9-----------------------|
E|-------------------7-7-----|---------------------------|

Chorus:

e|---------------------------|---------------------------|
B|---------------------------|------10-12----------------|
G|--------7-7----7-9----7-9--|-11-11---------------------|
D|--9--7-9-9--7-9-9--7-9-----|---------------------------|
A|---------------------------|---------------------------|
E|---------------------------|---------------------------|X2

Riff:

e|---------------------------|
B|---------------------------|
G|---------------------------|
D|--/9-7---------------------|
A|------9-7p9p7-5-7-5--------|
E|-------------------7-------|

End

ENJOY THIS NEW GREAT SONG BY WOLFMOTHER!! THE WOLFIES ARE BACK!

Rate, Comment, Enjoy
Tap to rate this tab
 
# A B C D E F G H I J K L M N O P Q R S T U V W X Y Z