Song name
# A B C D E F G H I J K L M N O P Q R S T U V W X Y Z

Wolfmother - New Moon Rising tab

Standard Tuning

e|---------------------------|
B|---------------------------|
G|---------------------------|
D|---------------------------|
A|------5-7b8-5-2--0-2--2----|
E|--5-7----------------------|X2

e|---------------------------|---------------------------|
B|---------------------------|---------------------------|
G|---------------------------|---------------------------|
D|---------------------------|---------------------------|
A|------5-7b8-5-2--0-2-5-2---|-----5-7b8-5-2--0-2--2-----|
E|--5-7----------------------|-5-7--------------------5-7|

 
Tap to rate this tab
# A B C D E F G H I J K L M N O P Q R S T U V W X Y Z