Song name
# A B C D E F G H I J K L M N O P Q R S T U V W X Y Z

Wolfmother - New Moon Rising tab

Artist: Wolfmother
Song: New Moon Rising
Album: New Moon Rising - Single also on their new album Cosmic Egg

Tabbed by: Beckett W
Email: beckett360@yahoo.com

This is a great version of the New Moon Rising solo. Very fun to play and 100% correct. Easy, too.

e|--12b14-10------12b14-10-------12b14-10----------10-10-12-----|
B|----------11-9-----------11-9-----------11-9--11--------------|
G|--------------------------------------------------------------|
D|--------------------------------------------------------------|
A|--------------------------------------------------------------|
E|--------------------------------------------------------------|

e|--12b14-10----12b14-10-------12b14-10-------------------------|
B|-----------11----------11-9-----------11-9-11---11------------|
G|--------------------------------------------------------------|
D|--------------------------------------------------------------|
A|--------------------------------------------------------------|
E|--------------------------------------------------------------|

e|------------10--10-12-12b14-10---|
B|---9--11-11----------------------|
G|---------------------------------|
D|---------------------------------|
A|---------------------------------|
E|---------------------------------|

| /  slide up
| \  slide down
| h  hammer-on
| p  pull-off
| ~  vibrato
| +  harmonic
| x  Mute note
===============================================================================
Tap to rate this tab
 
# A B C D E F G H I J K L M N O P Q R S T U V W X Y Z