Song name
# A B C D E F G H I J K L M N O P Q R S T U V W X Y Z

Wolfmother - New Moon Rising tab

Standard Tuning

^ = bend half step
V = bring bend back down
~ = vibrato
/ = slide into
\ = slide out of
h = hammer on
p = pull off
(9) = do not pick

Intro

Play twice:

---------------------------------------|
---------------------------------------|
---------------------------------------|
---------------------------------------|
---------5--7^hold--5------------------|
--5--7-------------------7---5--7--7---|

Intro pt. II

-----------------------------------------|
-----------------------------------------|
-----------------------------------------|
-----------------------------------------|
---------5--7^hold--5--------------5-----|
--5--7--------------------7--5--7----7---|

Intro pt. II

------------------------------------------------|
------------------------------------------------|
------------------------------------------------|
------------------------------------------------|
---------5--7^hold--5---------------------------|
--5--7-------------------7---5--7--7-----5--7\--|

Bridge

---------|
---------|
---------|
--7---9--|
--7---9--|
--5---7--|

Chorus

It sounds like a hammer on or slide into the first note, but this is an illusion. 
example of this instance is the intro to Zeppelin's "Whole Lotta Love"

--------------------------------------------|
--------------------------------------------|
--------------------------------------------|
--9-----7-----------------------------------|
----------9--------7h9p7------7----5--------|
--------------------------10-----------7----|

Chorus pt. II

9^V(9)p7 = bend 9 up whole step, bring back down, pull off to 7

------------------------------------------------|
------------------------------------------------|
--------------------------7-h9---9^V(9)p7-------|
--9-----7------------7-h9------------------h9---|
----------9------7h9----------------------------|
------------------------------------------------|

Verse

-----------------------------------------------------------------------------------------|
-------------------------------------------------------------------------------10--12\---|
-----------------7------7-----------7---------9-----------7---------11---11--------------|
--9-------7h9--------9---------7h9------9--------------9------9--------------------------|
-----------------------------------------------------------------------------------------|
-----------------------------------------------------------------------------------------|

Oh...     She don't mind...

Solo

12^holdV(12)p10 = Bend 12 whole step, hold, then bring back down, finally pull off to 10

~~ = Vibrato


--12^holdV(12)p10----------------12^holdV(12)p10-----------------12^holdV(12)p10---------|
--------------------12~~---10------------------------12~~---10----------------------12~~-|
-----------------------------------------------------------------------------------------|
-----------------------------------------------------------------------------------------|
-----------------------------------------------------------------------------------------|
-----------------------------------------------------------------------------------------|

-----------10--------10-----12----12^holdV(12)p10-------------|
--10h12---------12-------------------------------------12-----|
--------------------------------------------------------------|
--------------------------------------------------------------|
--------------------------------------------------------------|
--------------------------------------------------------------|

Outro

--------------------------------------------|
--------------------------------------------|
--------------------------------------------|
--9-----7-----------------------------------|
----------9--------7h9p7------7----5--------|
--------------------------10-----------7----|
Tap to rate this tab
# A B C D E F G H I J K L M N O P Q R S T U V W X Y Z