Song name
# A B C D E F G H I J K L M N O P Q R S T U V W X Y Z

Wolfmother - New Moon Rising tab

Standard Tuning

Transcribed by Danleary

Hello Wolfmother.net!

Key

^ : Bend
v : Bring bend back down
/ : Slide into
\ : Slide out of
h : Hammer on
p : Pull Off
(-) : Do not pick note
== : Vibrato

Intro

0:00

Repeat 2X

-----------------------------|
-----------------------------|
-----------------------------|
------5-7^hold-5-------------|
--5-7-------------7---5-7-7--|
       (1/4)

0:07

-------------------------------|
-------------------------------|
-------------------------------|
------5-7^hold-5----------5----|
--5-7-------------7---5-7---7--|
       (1/4)

0:11

-----------------------------------|
-----------------------------------|
-----------------------------------|
------5-7^hold-5-------------------|
--5-7-------------7---5-7-7--5-7\--|
       (1/4)

Bridge

0:39

Repeat 3X

-------|
-------|
-------|
--7-9--|
--7-9--|
----7--|

Chorus

0:50

---------------------------------------|
---------------------------------------|
---------------------------------------|
--7/9---7------------------------------|
----------9---7h9p7----7---------------|
--------------------10---10-7-7-7-7-7--|

0:53

---------------------------------------|
---------------------------------------|
----------------------7-9--9^v(9)p7----|
--7/9---7---------7-9---------------7--|
----------9---7h9----------------------|
---------------------------------------|
                          (1)

Verse

1:05


----------------------------------------------------|
--------------------------------------------10-12\--|
------------7---7-------7---9-----7---11-11---------|
--7/9---7h9---9-----7h9---9-----9---9---------------|
----------------------------------------------------|
----------------------------------------------------|

Solo

2:22

--12^v(12)p10-----------12^v(12)p10------------12^v(12)p10-------|
--------------12==---10-------------12==---10--------------12==--|
-----------------------------------------------------------------|
-----------------------------------------------------------------|
-----------------------------------------------------------------|
-----------------------------------------------------------------|

2:27

--------10----10-12-12^v(12)p10-------|
--10h12----12-------------------12==--|
--------------------------------------|
--------------------------------------|
--------------------------------------|
--------------------------------------|
Tap to rate this tab
 
# A B C D E F G H I J K L M N O P Q R S T U V W X Y Z