Song name
# A B C D E F G H I J K L M N O P Q R S T U V W X Y Z

Wolfmother - Tales From The Forest Of Gnomes tab

Transcribed by Danleary

Hello Wolfmother.net!

Standard Tuning

Key

h : Hammer on
p : Pull Off
T: Fret with thumb

Intro

Knowing how to play open A, G, and D chords will help immensely for this
song. These are the chords that all the notes are derived from. Make sure
to hit the bass notes and let them ring, as well as the lead! In some
instances, the bass notes are played simultaneously with the lead. This is
made for one guitar, so make sure you know how to do double stops!

Let Ring

0:00               0:04              0:06             0:09

------------------------------3-2-0---2---------3-2-0------|
-------2---3-2-0---0----------------0-------3---------0-2--|
---------2-------0--------0--------------------------------|
----------------------------0---------0-------0-0----------|
--0-----------------------------------------------------0--|
-------------------3---------------------------------------|
                   T

0:10              0:12               0:15             0:17

-----------------------------3-2-0---2----------3-2-0------|
--2--------3-2-0---0---------------0-------3----------0-2--|
-------2---------0-------0-------------------2-------------|
---------2-----------------0---0-----0---------------------|
--0--------0--------------------------------------------0--|
-------------------3---------------------------------------|
                   T

0:19             0:21                0:23             0:26

----------------------------3-2-0---2----------3-2-0------|
--2-------3-2-0---0---------------0--------3---------0-2--|
------2-----------------0--------------------2------------|
--------2-----------------0---------0----------0----------|
--0----------------------------------------------------0--|
------------------3---------------------------------------|
                  T

Verse

For these chords, keep your middle finger on the 10 and pinky on 12. These
two fingers should never move. Move your 1st (pointer) finger down to finger
the 8th fret on the 3rd (G) string, and use your 3rd (ring) finger when you
move to 11. It's quite a stretch, so you will hate this if you haven't built
up hand strength yet!

0:27

Repeat 3X

--12-----12-----12-----12----|
--10-----10-----10-----10----|
--9------8------11------9----|
-----------------------------|
-----------------------------|
-----------------------------|

Bridge (Intro revisted)

0:53

Variation of intro verse, but played twice instead of three times.

Chorus

Once you have the pattern for the riffage after the A chord memorized,
that's all you need to know. Just move the shape up or down the neck to the
appropriate spot after that. Note that he changes the rhythm up occasionally.

Also, keep in mind that Stockers uses the open chords for some reason. This
involves a lot of jumping around the neck, but it's the way he plays it...
for whatever reason. If it's easier for you to use the barre chords, go
right ahead... it's much more convenient that way.

1:10                            1:13

---------9-10-12--10--9h10p9--------3-------7-8-10--8--7h8p7----|
--2--------------------------10-----0------------------------8--|
--2---------------------------------0---------------------------|
--2---------------------------------0---------------------------|
--0---------------------------------2---------------------------|
------------------------------------3---------------------------|

1:15                                  1:17

--2------14-15-17--15--14h15p14---------------9-10-12--10-10--9-9--|
--3-----------------------------15-----2---------------------------|
--2------------------------------------2---------------------------|
--0------------------------------------2---------------------------|
--0------------------------------------0---------------------------|
-------------------------------------------------------------------|

Outro

This is exactly the same as the chord progression from earlier, but this
time he plays the notes individually and in succession, rather then strum
the whole chord harmoniously.

Let Ring
Repeat 3X

3:00

-----12---12-------12---12--------12----12--------12---12-----|
---10---10--10---10---10--10----10----10--10----10---10--10---|
--9----9------9-8----8------8-11----11------11-9----9------9--|
--------------------------------------------------------------|
--------------------------------------------------------------|
--------------------------------------------------------------|

Coda
Tap to rate this tab
# A B C D E F G H I J K L M N O P Q R S T U V W X Y Z