Song name
# A B C D E F G H I J K L M N O P Q R S T U V W X Y Z

Wolfmother - Cosmic Egg tab

Transcribed by Danleary

Hello Wolfmother.net!

Standard Tuning

Key

 ^  : Bend [1/4, 1/2, 1, etc.]
 v  : Bring bend back down
 /  : Slide into
 \  : Slide out of
 h  : Hammer on
 p  : Pull Off
 X  : Mute
(-) : Do not pick note
 =  : Vibrato
_____________________________________________________________________________

Intro/Chorus

Mute with pointer finger of fret hand on 10th fret of 6th string.
Swing eighth rhythm.

                 [1/4]                [1/4]                [1/4]
|----------------------------------------------------------------|
|----------------------------------------------------------------|
|----------------------------------------------------------------|
|-----------------12^------------------10^------------------12^--|
|--X--0-X--0-X--0-----0-X--0-X--0-X--0-----0-X--0-X--0-X--0------|
                   
                     [1/4]     
|--------------------------|
|--------------------------|
|--------------------------|
|--------------10h12--10^--|
|--0-X--0-X--0-------------|
_____________________________________________________________________________

Bridge

   C
|-------------------------------------------------------------------|
|-------------------------------------------------------------------|
|--10---10-10---10-10---10-10---10-10---10-10---10-10---10-10---10--|
|--10---10-10---10-10---10-10---10-10---10-10---10-10---10-10---10--|
|--8----8--8----8--8----8--8----8--8----8--8----8--8----8--8----8---|

   B                      G           F#
|--------------------------------------------------|
|--------------------------------------------------|
|--9---9-9---9-9---9-9--9-5---5-5---5-4---4-4---4--|
|--9---9-9---9-9---9-9--9-5---5-5---5-4---4-4---4--|
|--7---7-7---7-7---7-7--7-3---3-3---3-2---2-2---2--|
_____________________________________________________________________________

Verse

Mute with pointer finger of fret hand on 1st fret of 6th string.

|-----------------------------------------------|
|-----------------------------------------------|
|--------------0h2p0----------------------------|
|--------0h2h3-------3h2p0----------------------|
|--0h1h3-------------------X--0-X--0-X--0-X--0--|
_____________________________________________________________________________

Solo

Coming soon!


Tap to rate this tab
# A B C D E F G H I J K L M N O P Q R S T U V W X Y Z