Song name
# A B C D E F G H I J K L M N O P Q R S T U V W X Y Z

Wolfmother - White Feather tab

Transcribed by Danleary

Hello Wolfmother.net!

Standard Tuning

Key

 ^  : Bend [1/4, 1/2, 1, etc.]
 v  : Bring bend back down
 /  : Slide into
 \  : Slide out of
 h  : Hammer on
 p  : Pull Off
(-) : Do not pick note
 =  : Vibrato
 X  : Mute
_____________________________________________________________________________

Intro/Chorus

Play again at 0:52, 2:17
                                               Repeat
0:00                       0:04                 0:08
   B   E     B   E   B E      D   A     D   A   D A
|----------------------------------------------------|
|--7-7-9-----7-7-9---7-9------7-7-5-----7-7-5---7-5--|
|--8-8-9-----8-8-9---8-9------7-7-6-----7-7-6---7-6--|
|--9-9-9-----9-9-9---9-9------7-7-7-----7-7-7---7-7--|
|--9-9-7-----9-9-7---9-7------5-5-7-----5-5-7---5-7--|
|--7-7-------7-7-----7------------5---------5-----5--|
_____________________________________________________________________________

Verse

Play again at 1:26 and 2:42 (Note the second ending at 1:39, and 1:34 for Guitar II.)

Guitar I
                              Repeat 2X
0:34                             0:38
      D      E
|-------------------------------------|
|--X--7---X--9------9------9----9--9--|
|--X--7---X--9------9------9----9--9--|
|--X--7---X--9------9------9----9--9--|
|--X--5---X--7------7------7----7--7--|
|-------------------------------------|

                               Repeat X2
 0:43                            0:47  |1:39                            1:43
      D      A                               E      B
|--------------------------------------|------------------------------------|
|--X--7---X--5------5------5-----5--5--|--X--9---X--7------7------7-----7--7|
|--X--7---X--6------6------6-----6--6--|--X--9---X--8------8------8-----8--8|
|--X--7---X--7------7------7-----7--7--|--X--9---X--9------9------9-----9--9|
|--X--5---X--7------7------7-----7--7--|--X--7---X--9------9------9-----9--9|
|------------5------5------5-----5--5--|------------7------7------7-----7--7|

Guitar II        
                  Repeat X2
0:34                  0:36
          [1/2]
|------7------------------|
|--7/9-----7^v(7)---------|
|------------------9===---|
|-------------------------|
|-------------------------|
|-------------------------|

                        Repeat 2X
0:43                        0:45
              [1/2]
|--------12---------------------|
|--12/14------12^v(12)----------|
|-----------------------14=====-|
|-------------------------------|
|-------------------------------|
|-------------------------------|

0:49                                         0:53
                            [1]
|--------------------------14^----14--12-12===--|
|------------------12--14-----------------------|
|-------9--11--13-------------------------------|
|--9-11-----------------------------------------|
|-----------------------------------------------|
|-----------------------------------------------|

Second ending 

1:34                            1:39                    1:41                 
               [1/2]
|--------12----------------------------14-------------------|
|--12/14------12^v(12)-----------14/16-----14^v(14)---------|
|-----------------------14===------------------------16==\--|
|-----------------------------------------------------------|
|-----------------------------------------------------------|
|-----------------------------------------------------------|

1:41                             1:44
                               [3/4]
|-----------------------------------|
|-----------------------------------|
|-----------------------------------|
|--15h17p15----15------15--17--17^--|
|-----------17-----17---------------|
|-----------------------------------|

_____________________________________________________________________________

Bridge

Use pinky to reach out and grab the 13th and 16th fret of the A string. This
is a standard rock n roll technique that goes back to Buck Cherry, widely
used by guys such as Jimmy Page and Keith Richards. This will hurt if you
haven't built up hand strength yet, but learning this move is essential, and
once you have it down it's easy as cake! 

1:43                                         1:47
   F#       C#                       
|------------------------------------------------|
|--11-11-X---------------------------------------|
|--11-11-X--10------10---------------------------|
|--11-11-X--11------11---------------------------|
|--9--9--X--11------11------11-13-11-13-11-11-X--|
|-----------9-------9-------9--9--9--9--9--9--X--|

1:48                                           1:51
   A        E
|--------------------------------------------------|
|--14-14-X-----------------------------------------|
|--14-14-X--13-------13----------------------------|
|--14-14-X--14-------14----------------------------|
|--12-12-X--14-------14-------14-16----16-14-14-X--|
|-----------12-------12-------12-12----12-12-12-X--|
_____________________________________________________________________________

Solo

Coming soon!

|-------------------------------|
|-------------------------------|
|-------------------------------|
|-------------------------------|
|-------------------------------|
|-------------------------------|
_____________________________________________________________________________

Coda

3:00                       
   B   E    
|---------|
|--7-7-9--|
|--8-8-9--|
|--9-9-9--|
|--9-9-7--|
|--7-7----|


Tap to rate this tab
# A B C D E F G H I J K L M N O P Q R S T U V W X Y Z