Song name
# A B C D E F G H I J K L M N O P Q R S T U V W X Y Z

Wolfmother - Sundial tab

Transcribed by Danleary

Hello Wolfmother.net!

Standard Tuning

Key

 ^ : Bend [1/4, 1/2, 1, etc.]
 v : Bring bend back down
 / : Slide into
 \ : Slide out of
 h : Hammer on
 p : Pull Off
(-): Do not pick note
 = : Vibrato
 X : Mute
_____________________________________________________________________________

Intro/Verse

With wah-wah pedal. 

This section appears again (with slight variations) at 0:33, 1:28

 0:00                                                        0:05
|----------------------------------------------------------------|
|----------------------------------------------------------------|
|----------------------------------------------------------------|
|----------5-----------5-----------------------------------------|
|------5h7----7----5h7----7---5h7p5------------------------------|
|--0--------------------------------5-5h7p5-3-3h5--3--3---X-0-2--|

 0:05                 [1/2]                                  0:10 
|----------------------------------------------------------------|
|----------------------------------------------------------------|
|----------------------------------------------------------------|
|----------5-----------7^-5--------------------------------------|
|------5h7----7----5h7--------5h7p5------------------------------|
|--0--------------------------------5-5h7p5-3-3h5--3--3---X-0-2--|
_____________________________________________________________________________

Chorus

Appears again at 1:06, 2:01, [3:19 - omit G & B chords]  

  E        D       G        D    C       A   A  B
 0:11              0:15                        0:21
|--------------------------------------------------|
|------------------12-12-12------------------------|
|------------------12-12-12-11---------------------|
|--14-------12-----12-12-12-12---10------7---7--9--|
|--14-------12-----10-10-10-12---10------7---7--7--|
|--12-------10--------------10---8-------5---5--7--|
_____________________________________________________________________________

Bridge/Outro 

I'm still working this part out, it may change a bit. 

Appears again at 3:30

 2:22                        2:25 
|---------------------------------|
|---------------------------------|
|------------------------4-4h6-4--|
|------7---4h6---5-5h7------------|
|--5h7----------------------------|
|---------------------------------|
_____________________________________________________________________________

Solo
    
 2:34 [1/2]                    2:38         [1/4]         [1/4]        2:41
|--------------------------------------------------------------------------|
|--------------------------------------------------------------------------|
|--------------------------------------------------7-----------------------|
|-----9^v(9)==-----9-7-5---5--------------5-7-9^-----9-9-7-9^--------------|
|------------------------7---7--7-7---5-7------------------------5---7--7--|
|--------------------------------------------------------------------------|

 2:42   [1/4]                 [1] 2:45      [1]            [1/2]  [1]  2:48
|------------------------------------------17^v(17)--15--15-17^hold^-------|
|--------------------------------------------------------------------------|
|-------------7-------------7----------------------------------------------|
|------7-9^-----9^---7-9-9^---7^v(7)/17------------------------------------|
|--5-7---------------------------------------------------------------------|
|--------------------------------------------------------------------------|

 2:49 [1]                          [1/4]    2:52                       2:54
|-----17^-17-15----15--------------15^-------------------------------------|
|---------------17----17-17--17==----------15h17p15----15\--------15-17----|
|---------------------------------------------------16---------/16---------|
|--------------------------------------------------------------------------|
|--------------------------------------------------------------------------|
|--------------------------------------------------------------------------|

 2:54 [1/2]          2:56                           2:58
|---15^==v(15)-------------------15------------17^--15--|
|--------------17==--17---15h17-----17---15h17----------|
|-------------------------------------------------------|
|-------------------------------------------------------|
|-------------------------------------------------------|
|-------------------------------------------------------|

 2:59                                                 3:01
|----------------------------------------------------------|
|--15h17p15--------15--------------------------------------|
|-----------16--16----16-14--12-14--------------------12\--|
|-------------------------------------14--14----12-14------|
|----------------------------------------------------------|
|----------------------------------------------------------|

 3:02                      [1]                                         3:06
|------------15-----------17^--17--15--------------------------------------|
|--/15-15-17----17--15-17-------------17--17---17h15----15-----------------|
|----------------------------------------------------16----16p14\12-14p12--|
|--------------------------------------------------------------------------|
|--------------------------------------------------------------------------|
|--------------------------------------------------------------------------|

 3:07                                 [1]        [1]         [1]        [1]
|-----------------------------15-----17^--17-17-17^---17-17-17^--17-17-17^-|
|-------------------/15-15-17----17----------------------------------------|
|-----12-------------------------------------------------------------------|
|--14----14-14\------------------------------------------------------------|
|--------------------------------------------------------------------------|
|--------------------------------------------------------------------------|

 3:11                                                [1]       [1]  [1] 3:16
|--17-17-17p15----15--------------------------15----17^-17-17-17^--19^-----|
|--------------17----17-15-17-17\---/17-15-17----17------------------------|
|--------------------------------------------------------------------------|
|--------------------------------------------------------------------------|
|--------------------------------------------------------------------------|
|--------------------------------------------------------------------------|
_____________________________________________________________________________

Coda

   E
 3:40
|-----------------------|
|-----------------------|
|--9\-------------------|
|--9\-------------------|
|--7\-------------------|
|--0--------------------|




Tap to rate this tab
# A B C D E F G H I J K L M N O P Q R S T U V W X Y Z