Song name
# A B C D E F G H I J K L M N O P Q R S T U V W X Y Z

Wolfmother - New Moon Rising tab

This is only the main rift, ill do the intro soon hopefully. Don't know if 100%
right but sounds pretty decent. Standard tuning. First ever tab :)
must admit the lyrics might be abit off but they match the tune if they're
wrong.
Epic song nevertheless!

Tabbed by andrew stockdal

Into:

                          play this very quick before the verse
E-----------------     -----|
a-----------------     -----|
d-----------------     -----|
g-----------------     -----|
b-7-9b~-7---7---7-     -7-9-|
e--------9-9-9-9-9  x4 -----|

Verse:

E-5/7   play this after he says: 1 "...seen how you grow now"
a-5/7                            2 "...horses in ride"
d-5/7                            3 "...gonna have your say now"
g-7/9
b-7/9
e-5/7  x3


Main rift/chorus 1

E-------------------------   -------------------|
a-------------------------   -------------------|
d-------------------------   -----------9-11-9--|
g--9-7--------------------   -9-7---9-7-------9-|
b-9---9-7-9-7-5-7-5-7-----   -----9-------------|
e--------------------7----   -------------------| x2

E----------- --------- ----------------------|
a----------- --------- ---------------10-12--|
d---------7- -------9- --------9-11-11-------|
g--9-7-7-9-- 9-7-7-9-- -9-7-7-9--------------|
b-----9----- ---9----- ----9-----------------|
e----------- --------- ----------------------| x2


2nd verse

E-5/7   play this after he says: 1 "...gonna scare all the people"
a-5/7                            2 "...don't wanna be the whipping boy"
d-5/7                            3 "...time has come now"
g-7/9
b-7/9
e-5/7  x3

Main rift/chorus 2

E-------------------------   -------------------|
a-------------------------   -------------------|
d-------------------------   -----------9-11-9--|
g--9-7--------------------   -9-7---9-7-------9-|
b-9---9-7-9-7-5-7-5-7-----   -----9-------------|
e--------------------7----   -------------------| x2

E----------- --------- ----------------------|
a----------- --------- ---------------10-12--|
d---------7- -------9- --------9-11-11-------|
g--9-7-7-9-- 9-7-7-9-- -9-7-7-9--------------|
b-----9----- ---9----- ----9-----------------|
e----------- --------- ----------------------| x2

After chorus 2

E------------|
a------------|
d------------|  (This bit sounds so much better with pedals and that)
g------------|
b---------12-|
e-14-12-10---| x8 followed by intro again:

E----------------------|
a----------------------|
d----------------------|
g----------------------|
b-7-9b~-7---7---7------|
e--------9-9-9-9-9 x12-| (the 5th time volume decreases slightly)

Main rift/chorus 3

E-------------------------   -------------------|
a-------------------------   -------------------|
d-------------------------   -----------9-11-9--|
g--9-7--------------------   -9-7---9-7-------9-|
b-9---9-7-9-7-5-7-5-7-----   -----9-------------|
e--------------------7----   -------------------| x2

E----------- --------- ----------------------|
a----------- --------- ---------------10-12--|
d---------7- -------9- --------9-11-11-------|
g--9-7-7-9-- 9-7-7-9-- -9-7-7-9--------------|
b-----9----- ---9----- ----9-----------------|
e----------- --------- ----------------------| x2


Thanks :) feel free comments, corrections :)
Tap to rate this tab
# A B C D E F G H I J K L M N O P Q R S T U V W X Y Z