Song name
# A B C D E F G H I J K L M N O P Q R S T U V W X Y Z

Wolfmother - Far Away tab

This is off of Wolfmother's new album, "Cosmic Egg". Sorry
if it's off in some places. This is my very first tabbing so
if there are any flaws please let me know. Thanks.

e: --12h14p12----12--------------------------------------|
B: -----------14----14---12h14p12----12------------------|
G: -------------------------------13----13---11h13p11----|
D: ---------------------------------------------------14-| (x2)
A: ------------------------------------------------------|
E: ------------------------------------------------------|


e: ----------------------------------------------------|
B: --12h14p12----12------------------------------------|
G: -----------13----13---11h13p11----11----------11-13-|
D: -------------------------------14----14-11-14-------| (x2)
A: ----------------------------------------------------|
E: ----------------------------------------------------|

   (and again)
e: --12h14p12----12--------------------------------------|
B: -----------14----14---12h14p12----12------------------|
G: -------------------------------13----13---11h13p11----|
D: ---------------------------------------------------14-| (x2)
A: ------------------------------------------------------|
E: ------------------------------------------------------|


e: ----------------------------------------------------|
B: --12h14p12----12------------------------------------|
G: -----------13----13---11h13p11----11----------11-13-|
D: -------------------------------14----14-11-14-------| (x2)
A: ----------------------------------------------------|
E: ----------------------------------------------------|

I'm sorry I don't know the last bending chord. This is all I've
figured out so far. If you know the chord please tell me. Thanks!
Tap to rate this tab
# A B C D E F G H I J K L M N O P Q R S T U V W X Y Z