Song name
# A B C D E F G H I J K L M N O P Q R S T U V W X Y Z

Wolfmother - Far Away tab

E|--17------17------16------19-16-------------------------------------|
B|------19------19------17--------17----------------------------------|
G|--------------------------------------------------------------------|
D|--------------------------------------------------------------------|
A|--------------------------------------------------------------------|
E|--------------------------------------------------------------------|

E|--17------17------16------------------------------------------------|
B|------19------19------17--17--16--17------17------16------19-16-----|
G|--------------------------------------18------18------16--------16--|
D|--------------------------------------------------------------------|
A|--------------------------------------------------------------------|
E|--------------------------------------------------------------------|

E|--------------------------------------------------------------------|
B|--17------17------16------19-16-------------------------------------|
G|------18------18------16--------16----------------------------------|
D|--------------------------------------------------------------------|
A|--------------------------------------------------------------------|
E|--------------------------------------------------------------------|
Tap to rate this tab
 
# A B C D E F G H I J K L M N O P Q R S T U V W X Y Z