Song name
# A B C D E F G H I J K L M N O P Q R S T U V W X Y Z

Wolfmother - Caroline tab

--------------------------------------
Hey, this is my first tab, and I'm pretty sure
this is correct. Msg me for any corrections, thanks.
(Tuning - Standard)
Wolfmother - Caroline

*Listen to the song for strumming pattern, he usually plays the E string, then B 
string then strums.*
--------------------------------------
[Chords]                      [Power Chords(Use this for Chorus)]
  Em G   Cadd9     A(1)  A(2)   Em G  C   A  B  
e|X--X-----X--------X-----X-------------------------------------|
B|3--3-----3--------3-----3-------------------------------------|
G|0--0-----0--------2-----2-------------------------------------|
D|2--0-----2--------2-----2-----2--5--10--7--9------------------|
A|2--2-----3--------0-----0-----2--5--10--7--9------------------|
E|0--3-----0--------2-----3-----0--3--8---5--7------------------|

Intro : E G C A(1) A(2)

Em         G            Cadd9                  A(1)     A(2)    Em 
   I can remember, I can remember a time of beginning  to  relate
Em             G              Cadd9                     A(1)       A(2)      
   To who you are, who you really are, never look back 'cause we've come so 
Em
far
Em            G              Cadd9            A(1)      A(2)     Em
   There's a place, I can never return, so I decide to let it burn
Em      G                    Cadd9                   A(1)     A(2)
   Far away, is where I'd rather be than to see that look upon your face


D       Em  C  G
   Our love is all   around here
D       Em  C  G
   She goes away just to be near

e|12---19-17-15-14--15-17-15-14-12-10-12-14-15-17-15-14-15-17-19|
B|--12----------------------------------------------------------|
G|--------------------------------------------------------------|
D|--------------------------------------------------------------|
A|--------------------------------------------------------------|
E|--------------------------------------------------------------|

(Background)
e|--------------------------------------------------------------|
B|-----15-------------15--------------------15----15------------|
G|-16------16----16-------16--14-12--14-16-----16----16---------|
D|--------------------------------------------------------------|
A|--------------------------------------------------------------|
E|--------------------------------------------------------------|

e|---------------------------------15-----15-----15-------------|
B|-----15------------15-----------------------------------------|
G|-16------16-----16----16--------------------------------------|
D|--------------------------------------------------------------|
A|--------------------------------------------------------------|
E|--------------------------------------------------------------|

e|--------------------------------------------------------------|
B|-----15-------------15--------------------15----15------------|
G|-16------16----16-------16--14-12--14-16-----16----16---------|
D|--------------------------------------------------------------|
A|--------------------------------------------------------------|
E|--------------------------------------------------------------|


e|--------------------------------------------------------------|
B|-----15------------15-----------------------------------------|
G|-16------16---16-------16----14-12-14-14---14-12-11-----------|
D|-------------------------------------------------14-----------|
A|--------------------------------------------------------------|
E|--------------------------------------------------------------|

[Chorus] (Use Power Chords)
Em  G             C             A     B    Em
Caroline, tell me why you wanna leave this way?
Em  G             C               A   B    Em
Caroline, tell me where you gonna go this time?
Em          G                 C               A  B Em
'Cause all we are, is all we are and now it's up to you


E G C A(1) A(2)

Em     G       Cadd9                 A(1)       A(2)   Em
   Caroline, we'll find a place that makes you feel apart
Em         G             Cadd9                  A(1)A(2)Em
   Well it gets you high and makes you feel the possibility
Em                   G                   Cadd9                     A(1)           A(2)      Em
  And who you really are, who you really are, never look back 'cause we've come so far
Em           G               Cadd9                A(1)          A(2)    
   There's a place I can never return, and from here you'll start tonight



D       Em  C  G
   Our love is all   around here
D       Em  C  G
   She goes away just to be near

Em  G             C             A     B    Em
Caroline, tell me why you wanna leave this way?
Em  G             C               A   B    Em
Caroline, tell me where you gonna go this time?
Em          G                 C                 A  B   Em
'Cause all we are, is all we are and there's no reason why.
Em          G                 C                 A  B   Em
'Cause all we are, is all we are, don't let it go to waste
Em    G    C             A      B     Em         
               Don't you let it go to waste
                                 
Em    G    C             A    B  Em         
               Don't you ever go away.



---------------------------------
Thank you!

Tabbed By : Tabiola.R


Tap to rate this tab
# A B C D E F G H I J K L M N O P Q R S T U V W X Y Z