Song name
# A B C D E F G H I J K L M N O P Q R S T U V W X Y Z

Wolfmother - Fell Down A Hole tab

-------------------------------------------------------------------------------
			    FELL DOWN A HOLE - Wolfmother
-------------------------------------------------------------------------------
Tabbed by: Tim Palman
Email: palman.tim@gmail.com 

Tuning: Drop D DAdGBE

Intro:
e|---5-10-5-8-7-5-7-8-7-5----------|
B|---------------------------------|
G|--------------------------10--7--| x4
d|--------------------------10--7--|
A|--------------------------8---5--|
D|---------------------------------|

Verse: (All palm muted during vocals except chords)
e|--------------------------------------|
B|--------------------------------------|
G|--------------------------------10--7-| x8
D|--------------------------------10--7-|
A|--------------------------------8---5-|
E|----7-12-7-10-9-7-9-10-6-7------------|

Chorus: 
e|-------------------------------|
B|-------------------------------|
G|--7------10------9------12-----| x2
D|--7-x16--10-x16--9-x16--12-x16-|
A|--5------8-------7------10-----|
E|-------------------------------|

Pre Verse: (same as intro)
e|---5-10-5-8-7-5-7-8-7-5---------|
B|--------------------------------|
G|--------------------------10--7-| x4
d|--------------------------10--7-|
A|--------------------------8---5-|
D|--------------------------------|

Bridge:
e|----------------------------------|
B|----------------------------------|
G|------7---------------------------| x6
D|---0--7---------------------------|
A|---0--5---9-10-9-10-9-10--5-5-3-3-|
E|---0------9-10-9-10-9-10--5-5-3-3-|



Composition:
Intro
Verse
Chorus
Pre verse
Verse
Chorus
Pre Verse
Bridge
Solo
************************************

| /   slide up
| \   slide down
| h   hammer-on
| p   pull-off
| ~   vibrato
| +   harmonic
| x   Mute note
| b   Bend
| pb  Pre-bend
| br  Bend release
| pbr Pre-bend release
| brb Bend release bend

************************************
Tap to rate this tab
 
# A B C D E F G H I J K L M N O P Q R S T U V W X Y Z