Song name
# A B C D E F G H I J K L M N O P Q R S T U V W X Y Z

Wolfmother - Fell Down A Hole tab

Intro:
(Palm mute)
e|-------------|
B|-------------|
G|-------------|
D|---7---------|
A|---5---------|
E|-------------| 

Guitar 1:

e|---7-10-7-8-7--7-8-7-5-----------|
B|---------------------------------|
G|---------------------------------| x4
d|---------------------------------|
A|---------------------------------|
E|---------------------------------|

Guitar 2:
                            F   D
e|---------------------------------|
B|---------------------------------|
G|---------------------------------| x4
d|--------------------------10--7--|
A|--------------------------8---5--|
E|---------------------------------|

Guitar 1:

e|---------------------------------|
B|---------------------------------|
G|---------------------------------| x4
d|---------------------------------|
A|---------------------------------|
E|---7-10-7-8-7--7-8-7-5-----------|

Guitar 2:
   D                         F 
e|----------------------------------|
B|----------------------------------|
G|----------------------------------| x4
d|--7(x8)---------------------10----|
A|--5-------------------------8-----|
E|----------------------------------|

Verse : "I wanna be in Wonderland..."
Guitar 1:
(Palm Mute)
e|---------------------------------|
B|---------------------------------|
G|---------------------------------| x4
d|---------------------------------|
A|---------------------------------|
E|---7-10-7-8-7--7-8-7-5-----------|

Guitar 2:
   D                         F 
e|----------------------------------|
B|----------------------------------|
G|----------------------------------| x4
d|--7(x8)---------------------10----|
A|--5-------------------------8-----|
E|----------------------------------|

Chorus : "Could you lend a hand..."
Guitar 1:
    G          A#m        Am       Cm
e|----------------------------------------------|
B|----------------------------------------------|
G|----------------------------------------------| x2
d|----------------------------------------------|
A|--5-7(x8)---8-10(x8)---7-9(x8)--10-12(x8)-----|
E|--3-3-------6-6--------5-5------8--8----------|

Guitar 2:
   G       A#m      Am     Cm
e|------------------------------------|
B|------------------------------------|
G|------------------------------------| x2
d|--5-------8-------7------10---------|
A|--5(x8)---8(x8)---7(x8)--10(x8)-----|
E|--3-------6-------5------8----------|

Intro:
Guitar 1:

e|---7-10-7-8-7--7-8-7-5-----------|
B|---------------------------------|
G|---------------------------------| x4
d|---------------------------------|
A|---------------------------------|
E|---------------------------------|

Guitar 2:
                            F   D
e|---------------------------------|
B|---------------------------------|
G|---------------------------------| x4
d|--------------------------10--7--|
A|--------------------------8---5--|
E|---------------------------------|

Verse : "She got everything on a string ..."
Guitar 1:
(Palm Mute)
e|---------------------------------|
B|---------------------------------|
G|---------------------------------| x4
d|---------------------------------|
A|---------------------------------|
E|---7-10-7-8-7--7-8-7-5-----------|

Guitar 2:
   D                         F 
e|----------------------------------|
B|----------------------------------|
G|----------------------------------| x4
d|--7(x8)---------------------10----|
A|--5-------------------------8-----|
E|----------------------------------|

Chorus : "Could you lend a hand..."
Guitar 1:
    G         A#m        Am       Cm
e|----------------------------------------------|
B|----------------------------------------------|
G|----------------------------------------------| x2
d|----------------------------------------------|
A|--5-7(x8)---8-10(x8)---7-9(x8)--10-12(x8)-----|
E|--3-3-------6-6--------5-5------8--8----------|

Guitar 2:
    G       A#m     Am     Cm
e|------------------------------------|
B|------------------------------------|
G|------------------------------------| x2
d|--5-------8-------7------10---------|
A|--5(x8)---8(x8)---7(x8)--10(x8)-----|
E|--3-------6-------5------8----------|

Intro:
Guitar 1:

e|---7-10-7-8-7--7-8-7-5-----------|
B|---------------------------------|
G|---------------------------------| x4
d|---------------------------------|
A|---------------------------------|
E|---------------------------------|

Guitar 2:
                            F   D
e|---------------------------------|     e|-------|
B|---------------------------------|     B|-------|
G|---------------------------------| x4  G|------ |   
d|--------------------------10--7--|     d|---7---|
A|--------------------------8---5--|     A|---5---|
E|---------------------------------|     E|-------|


Bridge: "Oh, oh she's got every little thing hanging from a string .."
Guitar 2:

e|---------------------------------|
B|---------------------------------|
G|---------------------------------| x6
d|-----7----4-5-4-5-4----5-3-------|
A|--5--5----2-3-2-3-2----5-3-------|
E|-----------------------3-1-------|

-DRUM-

Solo:
Guitar 1:
e|---------------------------|
B|---------------------------|
G|--7-5h7-5h7--5-7-5h7-5h7---| 
d|---------------------------|
A|---------------------------|
E|---------------------------|

e|-------------------------------------?????|
B|-------------------------8^-8--------?????|
G|--7-5-7-10-7-10-7---7h10------10-7---?????| 
d|-------------------------------------?????|
A|-------------------------------------?????|
E|-------------------------------------?????|

Guitar 2:
    G          A#m        Am       Cm
e|----------------------------------------------|
B|----------------------------------------------|
G|----------------------------------------------| x2
d|----------------------------------------------|
A|--5-7(x8)---8-10(x8)---7-9(x8)--10-12(x8)-----|
E|--3-3-------6-6--------5-5------8--8----------|

sorry i still can't find the solo part :(

Intro:
Guitar 1:

e|---7-10-7-8-7--7-8-7-5-----------|
B|---------------------------------|
G|---------------------------------| x4
d|---------------------------------|
A|---------------------------------|
E|---------------------------------|

Guitar 2:
                            F   D
e|---------------------------------|
B|---------------------------------|
G|---------------------------------| x4
d|--------------------------10--7--|
A|--------------------------8---5--|
E|---------------------------------|

Chorus : "Could you lend a hand..."
Guitar 1:
    G         A#m        Am       Cm
e|----------------------------------------------|
B|----------------------------------------------|
G|----------------------------------------------| x2
d|----------------------------------------------|
A|--5-7(x8)---8-10(x8)---7-9(x8)--10-12(x8)-----|
E|--3-3-------6-6--------5-5------8--8----------|

Guitar 2:
    G       A#m     Am     Cm
e|------------------------------------|
B|------------------------------------|
G|------------------------------------| x2
d|--5-------8-------7------10---------|
A|--5(x8)---8(x8)---7(x8)--10(x8)-----|
E|--3-------6-------5------8----------|

Outro:
Guitar 1:

e|---7-10-7-8-7--7-8-7-5-----------|
B|---------------------------------|
G|---------------------------------| x4
d|---------------------------------|
A|---------------------------------|
E|---------------------------------|

Guitar 2:
                            F   D
e|---------------------------------|
B|---------------------------------|
G|---------------------------------| x4
d|--------------------------10--7--|
A|--------------------------8---5--|
E|---------------------------------|
Tap to rate this tab
 
# A B C D E F G H I J K L M N O P Q R S T U V W X Y Z