Song name
# A B C D E F G H I J K L M N O P Q R S T U V W X Y Z

Wolfmother - Far Away tab

Wolfmother - Far Away (Cosmic Egg 2009)
-----------
I really hope you enjoy this!
Tuning is standard

THANK YOU TO frosty516, he tabbed the solo I just changed it a little

= Distortion part ; 0:06 - 0:43

e|-17---17--16--1916--|-17--17--16---1614|-12--12--14--14--|-16--16--14-14--|
B|---19---17--17---17-|---19--19--17-1716|-14-14-14--16-16-|---17--17-16-16-|
G|--------------------|------------------|---------------16|--------------16|   
D|--------------------|------------------|-----------------|----------------|
A|--------------------|------------------|-----------------|----------------|
E|--------------------|------------------|-----------------|----------------|

- Clean Part ; 0:44 - 1:06

e|-5---5---5---5----|-4---4---2---2---|-5---5---5---5----|-4---4---2---2---|
B|---7---7---7---7--|---5---5---4--4--|---7---7---7---7--|---5---5---4--4--|
G|------------------|---------------4-|------------------|---------------4-|   
D|------------------|-----------------|------------------|-----------------|
A|------------------|-----------------|------------------|-----------------|
E|------------------|-----------------|------------------|-----------------|

e|-5---5---5---5----|-4---4---2---2--2|---2-4-5~|
B|---7---7---7---7--|---5---5---4--4--|4--------|
G|------------------|-----------------|---------|   
D|------------------|-----------------|---------|
A|------------------|-----------------|---------|
E|------------------|-----------------|---------|

= Distortion Part again ; 1:07 - 1:32

e|-17---17--16--1916--|-17--17--16---1614|-12--12--14--14--|-16--16--14-14--|
B|---19---17--17---17-|---19--19--17-1716|-14-14-14--16-16-|---17--17-16-16-|
G|--------------------|------------------|---------------16|--------------16|   
D|--------------------|------------------|-----------------|----------------|
A|--------------------|------------------|-----------------|----------------|
E|--------------------|------------------|-----------------|----------------|

- Clean Part again ; 1:33 - 1:54

e|-5---5---5---5----|-4---4---2---2---|-5---5---5---5----|-4---4---2---2---|
B|---7---7---7---7--|---5---5---4--4--|---7---7---7---7--|---5---5---4--4--|
G|------------------|---------------4-|------------------|---------------4-|   
D|------------------|-----------------|------------------|-----------------|
A|------------------|-----------------|------------------|-----------------|
E|------------------|-----------------|------------------|-----------------|

e|-5---5---5---5----|-4---4---2---2--2|---2-4-5~|
B|---7---7---7---7--|---5---5---4--4--|4--------|
G|------------------|-----------------|---------|   
D|------------------|-----------------|---------|
A|------------------|-----------------|---------|
E|------------------|-----------------|---------|

~ Chorus (Distortion) ; 1:56 - 2:20

e|------------------------------------|
B|------------------------------------|
G|-----444/666-----------------66/44--|  X 2 
D|-222-444/666-666/777-222/777-66/44--|
A|-222-222/444-666/777-222/777-44/22--|
E|-000---------444/555-000/555--------|

= Solo (Distortion ofcourse) ; 2:21 - 4:46

e|--12h14p12----12--------------------------------------|
B|-----------14----14---12h14p12----12------------------|
G|-------------------------------13----13---11h13p11----|  X 2
D|---------------------------------------------------14-|
A|------------------------------------------------------|
E|------------------------------------------------------|

e|------------------------------------------------------|
B|--12h14p12----12--------------------------------------|
G|-----------13----13---11h13p11----11----------9-11----|  X 2
D|-------------------------------14----14-9-11----------|
A|------------------------------------------------------|
E|------------------------------------------------------|

e|--12h14p12----12--------------------------------------|
B|-----------14----14---12h14p12----12------------------|
G|-------------------------------13----13---11h13p11----|  X 2
D|---------------------------------------------------14-|
A|------------------------------------------------------|
E|------------------------------------------------------|

e|------------------------------------------------------|
B|--12h14p12----12--------------------------------------|
G|-----------13----13---11h13p11----11----------9-11----|
D|-------------------------------14----14-9-11----------|
A|------------------------------------------------------|
E|------------------------------------------------------|

e|------------------------------------------------------|
B|--12h14p12----12--------------------------------------|
G|-----------13----13---11h13p11----11----------9-11^---|
D|-------------------------------14----14-9-11----------|
A|------------------------------------------------------|
E|------------------------------------------------------|

~ Chorus ; 2:47 - 3:23

e|------------------------------------|
B|------------------------------------|
G|-----444/666-----------------66/44--|  X 4 
D|-222-444/666-666/777-222/777-66/44--|
A|-222-222/444-666/777-222/777-44/22--|
E|-000---------444/555-000/555--------|

then you play the chorus until the end,
and you finish with

e|------|
B|------|
G|------|
D|-2~~--|
A|-2~~--|
E|-0~~--|

THANK YOU TO frosty516 again, he tabbed the solo I just changed it a little
and ofcourse thank you all for reading this
have fun and good luck!


ROMAN ZARKHIN
Tap to rate this tab
 
# A B C D E F G H I J K L M N O P Q R S T U V W X Y Z