Wolfmother - Woman tab

Tuning is in Drop D

into

e|------------------|
B|------------------|
G|-7-7-7-7-7-7------|
D|-7-7-7-7-7-7------|
A|-5-5-5-5-5-5------|
E|------------5-6-7-|

e|------------------|
B|------------------|
G|-7-7-7-7-7-7------|
D|-7-7-7-7-7-7------|
A|-5-5-5-5-5-5------|
E|------------5-6-7-|

e|------------------------|
B|------------------------|
G|-7-7-7-7-7-7------------|  Repeat all of above
D|-7-7-7-7-7-7--------5-3-|
A|-5-5-5-5-5-5--------5-3-|
E|------------5-6-7---5-3-|

e|-------------------------------------------------------------------|
B|-------------------------------------------------------------------|
G|-------------------------------------------------------------------|
D|-5---8---5---8---7---10--------------------------------------------|
A|-5---8---5---8---7---10----3-5-3---3---3-------3-5-3---3---3-------|
E|-5---8---5---8---7---10----------7---7---7-5-3-------7---7---7-5-0-|

e|--------------------------------------|
B|--------------------------------------|
G|--------------------------------------|
D|----------------------------------5-3-|
A|-------3-------3------3-------5---5-3-|
E|-0-3-5---0-3-5---0-3-5--0-3-5-----5-3-|

e|------------------|
B|------------------|
G|-7-7-7-7-7-7------|
D|-7-7-7-7-7-7------|
A|-5-5-5-5-5-5------|
E|------------5-6-7-|


thats pretty much the whole song
Tap to rate this tab
 
# A B C D E F G H I J K L M N O P Q R S T U V W X Y Z