Wolfmother - Where Eagles Have Been tab

Wolfmother

Where Eagles Have Been

Key

 ^ : Bend [1/4, 1/2, 1, etc.]
 v : Bring bend back down
 / : Slide into
 \ : Slide out of
 h : Hammer on
 p : Pull off
(-): Ghost note
 ~ : Vibrato
 x : Mute
 T : Fret with thumb

_____________________________________________________________________________

Intro

He plays this part fingerstyle using only his thumb and index finger, 
anchoring his pinky on the pickguard. Guitar II is played with a pick, slowly
strumming the chords in a sweep like manner. 

Guitar I

Let Ring 

  D                            Dm
  
e|2--------2----2h3---0-------|1-------1----1----1p0------|
B|----3------3-----------3----|---3------3-----------3----|
G|------2---------------------|-----2---------------------|
D|0-------------0---0------0--|0------------0--0-------0--|
A|----------------------------|---------------------------|
E|----------------------------|---------------------------|

  D                            Dm
  
e|2--------2----3-----0-------|1-------1----1----1p0------|
B|----3------3-----------3----|---3------3-----------3----|
G|------2---------------------|-----2---------------------|
D|0-------------0---0------0--|0------------0--0-------0--|
A|----------------------------|---------------------------|
E|----------------------------|---------------------------|


Guitar II

  D                            Dm 

e|3---------------------------|1--------------------------|
B|2---------------------------|3--------------------------|
G|3---------------------------|2--------------------------|
D|0---------------------------|0--------------------------|
A|----------------------------|---------------------------|
E|----------------------------|---------------------------|


_____________________________________________________________________________

Bridge

Guitar I

  G                          C             A

e|3-----3-3----3------------|----------------------------|
B|---0------0-----0----0----|1-------1-----2----2h3------|
G|-----------------------0--|---0------0------------0----|
D|--------------------------|-----2-------------------0--|
A|------------------2-------|3-------------0--0----------|
E|3------------3------------|----------------------------|


Variation

  G                          C             A

e|3-----3-3----3-------3----|--------0-------------------|
B|---0------0-----0------0--|1--1------1---2----2h3------|
G|--------------------------|-----0-----------------0----|
D|--------------------------|-------------------------0--|
A|------------------2-------|3-------------0--0----------|
E|3------------3------------|----------------------------|

Guitar II

  G                          C             A  

e|3-------------------------|0---------------------------|
B|0-------------------------|1-------------2-------------|
G|0-------------------------|0-------------2-------------|
D|0-------------------------|2-------------2-------------|
A|2-------------------------|3-------------0-------------|
E|3-------------------------|----------------------------|


_____________________________________________________________________________


Guitar I

  D                            F            G 
  
e|2--------2----3-----0-------|5-------5----7----8p7------|
B|----3------3-----------3----|---6------6-----------6----|
G|------2---------------------|-----5---------------------|
D|0-------------0---0------0--|0------------0--0-------0--|
A|----------------------------|---------------------------|
E|----------------------------|---------------------------|

  D                            F            G          C

e|2--------2----3-----0-------|5-------5----7----8p7---8---|
B|----3------3-----------3----|---6------6-----------8-8---|
G|------2---------------------|-----5------------------9---|
D|0-------------0---0------0--|0------------0--0-------10--|
A|----------------------------|------------------------10--|
E|----------------------------|------------------------8---|


Guitar II

  D                            F            G        

e|3---------------------------|5------------7-------------|
B|2---------------------------|6------------8-------------|
G|3---------------------------|5------------7-------------|
D|0---------------------------|0------------0-------------|
A|----------------------------|---------------------------|
E|----------------------------|---------------------------|


_____________________________________________________________________________


  D             F     G     D                 F     G

e|10-----------|------------10-|10-----------|---------------|
B|10-----------|10----12----10-|10-----------|10----12-------|
G|11-----------|10----12----11-|11-----------|10----12-------|
D|12-----------|10----12-------|12-----------|10----12-------|
A|12-----------|8-----9--------|12-----------|8-----9--------|
E|10-----------|---------------|10-----------|---------------|
                                                      (etc...)


_____________________________________________________________________________


  D               C               A              G 

e|10-------------|8--------------|5-------------|3-------------|
B|10-------------|8--------------|5-------------|3-------------|
G|11-------------|9--------------|6-------------|4-------------|
D|12-------------|10-------------|7-------------|5-------------|
A|12-------------|10-------------|7-------------|5-------------|
E|10-------------|8--------------|5-------------|3-------------|


_____________________________________________________________________________


e|-----------|-----------|-----------|------------|
B|-----------|-----------|-----------|------------|
G|-----------|-----------|-----------|------------|
D|-----------|-----------|-----------|------------|
A|0----------|-----------|0----------|------------|
E|-----------|-----------|-----------|------------|

_____________________________________________________________________________


  D               C               A              G          D

e|10-------------|8--------------|5-------------|3----------10--|
B|10-------------|8--------------|5-------------|3----------10--|
G|11-------------|9--------------|6-------------|4----------11--|
D|12-------------|10-------------|7-------------|5--------------|
A|12-------------|10-------------|7-------------|5--------------|
E|10-------------|8--------------|5-------------|3--------------|


  D                             C

e|10----10----------------(0)--|8-----8-----8---8---8---(0)--|
B|10----10----------------(0)--|8-----8-----8---8---8---(0)--|
G|11----11----------------(0)--|9-----9-----9---9---9---(0)--|
D|12----12----12--12--12--(0)--|10----10----10--10--10--(0)--|
A|12----12----12--12--12-------|10----10----10--10--10-------|
E|10----10----10--10--10-------|8-----8-----8---8---8--------|

  
  A                        G

e|5------------------(0)--|-------------------(0)--|
B|5------------------(0)--|-------------------(0)--|
G|6------------------(0)--|-------------------(0)--|
D|7----7----7--7--7--(0)--|5----5----5--5--5--(0)--|
A|7----7----7--7--7-------|5----5----5--5--5-------|
E|5----5----5--5--5-------|3----3----3--3--3-------|


  D                             C
  
e|------10----10--10--10--(0)--|8-----8-----8---8---8---(0)--|
B|------10----10--10--10--(0)--|8-----8-----8---8---8---(0)--|
G|------11----11--11--11--(0)--|9-----9-----9---9---9---(0)--|
D|12----12----12--12--12--(0)--|10----10----10--10--10--(0)--|
A|12----12----12--12--12-------|10----10----10--10--10-------|
E|10----10----10--10--10-------|8-----8-----8---8---8--------|



  A                        G                          D

e|5----5-------------(0)--|3----3---------------(0)--|----------------------|
B|5----5-------------(0)--|3----3---------------(0)--|----------------------|
G|6----6-------------(0)--|4----4---------------(0)--|11--------------------|
D|7----7----7--7--7--(0)--|5----5----5--5--5----(0)--|12--------------------|
A|7----7----7--7--7-------|5----5----5--5--5---------|12--------------------|
E|5----5----5--5--5-------|3----3----3--3--3---------|10--------------------|

_____________________________________________________________________________


         C   D         F         C         G     C     G     C     G   C 

e|-------8--|10-------|---------|8--------|------8-----------8---------8---|
B|-------8--|10-------|10-------|8--------|12----8-----12----8-----12--8---|
G|-------9--|11-------|10-------|9--------|12----9-----12----9-----12--9---|
D|-------10-|12-------|10-------|10-------|12----10----12----10----12--10--|
A|----------|12-------|8--------|10-------|10----10----10----10----10--10--|
E|----------|10-------|---------|8--------|------8-----------8---------8---|

_____________________________________________________________________________

Solo


e|------------------------------|------------------13------13-15--|
B|------------------------------|-----------13-15------15---------|
G|----------------------10~~----|10--12/14------------------------|
D|---------------10-12------12--|---------------------------------|
A|------8h10/12-----------------|---------------------------------|
E|8h10--------------------------|---------------------------------|


   [1]--------------------->
e|15^---^15-^15--^15--^15--^15v(15)p13-----13~~~|-------------------------|
B|-------------------------------------15~~~----|15~~~15~~~15~~~15~15~15~~|
G|----------------------------------------------|-------------------------|
D|----------------------------------------------|-------------------------|
A|----------------------------------------------|-------------------------|
E|----------------------------------------------|-------------------------|



e|-----------------------------------------------|
B|15p13----13------------------------------------|
G|------14----14p12-14---10-12p10----10----------|
D|--------------------------------12----12-10h12-|
A|-----------------------------------------------|
E|-----------------------------------------------|



e|------------------------------------------|
B|--------------------------------------15--|
G|------------------------------------------|
D|10----10----------------------------------|
A|---12----12-10h12p10\8-10p8----8----------|
E|----------------------------10---10p8-----|


   [1]---------------------->
e|15^---^15---^15---^15-^15-^15--|15p13----13----------------------------0--|
B|-------------------------------|------15----15-13-15p13---13-----------0--|
G|-------------------------------|-----------------------------14p12-14--0--|
D|-------------------------------|------------------------------------------|
A|-------------------------------|------------------------------------------|
E|-------------------------------|------------------------------------------|



e|----------------------------------------|
B|----------------------------------------|
G|----------------------------------------|
D|----------5h7-----------------5h7-------|
A|-----5h7-------7p5-------5h7-------7p5--|
E|5h7-----------------5h7-----------------|



e|------------------------------------------|
B|------------------------------------------|
G|------------------------------------------|
D|-----------7h9------------------7h9-------|
A|------7h9-------9p7--------7h9-------9p7--|
E|7h10-----------------7h10-----------------|


  D                           C

e|10----10----10----10----10--8---|
B|10----10----10----10----10--8---|
G|11----11----11----11----11--9---|
D|12----12----12----12----12--10--|
A|12----12----12----12----12--10--|
E|10----10----10----10----10--8---|
                               
_____________________________________________________________________________

Tap to rate this tab
 
# A B C D E F G H I J K L M N O P Q R S T U V W X Y Z