Wolfmother - Vagabond tab

Wolfmother - Vagabond <3

Intro 
guitar 1 (acoustic)
e-----------------------------------------------------------|
B-----2--------5--3p2------2--------------------------------|
G-----2--------------2-------2----4p2p0---2-----------------|
D--------0--------------2--------------0h2-2----------------|
A--0------0-----0--------0-----0--0-------------------------|
E-----------------------------------------------------------|

Verse (the above riff)

Chorus ("I'll tell you everything...")
e---3--3-3-3--3-3----2------3-3p2---------------------------|
B---3--3-3-3--3-3----3--3---------3-------------------------|
G---0--0-0-0--0-0----2----2---------------------------------|
D---0--0-0-0--0-0--0-0-------0------------------------------|
A---2-------------------------------------------------------|
E-3-3-------------------------------------------------------|

Middle section of song (solo)

e----------------------------------------------|
B---14-14---17---15p14---14-14-----------------|
G---14-14-14---14-----14-14-14-14-16p14-----14-|
D---14-14-14---14--------14-14-14------12h14---|
A-0--------0----0-------0-------0--------------|
E----------------------------------------------|

e----------------------------------------------|
B---12-12---15---13p12---12-12-----------------|
G---12-12-12---12-----12-12-12-12-14p12-----12-|
D---12-12-12---12--------12-12-12------10h12---|
A-0--------0----0-------0-------0--------------|
E----------------------------------------------|

e--------------------------------------|
B---7-7---10--8p7------7-7-------------|
G---7-7-7---7-----7----7-7-7-9p7-----7-|
D---7-7-7---7-----7----7-7-7-----5h7---|
A-0-----0---0-----0--0-----0-----------|
E--------------------------------------|

e------------------------------------|
B---2-2---5--3p2-----2-2-------------|
G---2-2-2---2----2---2-2-2-4p2-----2-|
D---2-2-2---2----2---2-2-2-----0h2---|
A-0-----0---0----0-0-----0-----------|
E------------------------------------|


e------------------------------------|
B---2-2---5--3p2-----2-2-------------|
G---2-2-2---2----2---2-2-2-4p2-----2-|
D---2-2-2---2----2---2-2-2-----0h2---|  x2
A-0-----0---0----0-0-----0-----------|
E------------------------------------|

e---3--3-3-3--3-3----2--2-2 3-3p2----|
B---3--3-3-3--3-3----3--3-3--3---3---|
G---0--0-0-0--0-0----2--2-2--2-------|
D---0--0-0-0--0-0--0-0--0-0--0-------|
A---2--------------------------------|
E-3-3--------------------------------|

e----------------------------------------------|
B---14-14---17---15p14---14-14-----------------|
G---14-14-14---14-----14-14-14-14-16p14-----14-|
D---14-14-14---14--------14-14-14------12h14---|
A-0--------0----0-------0-------0--------------|
E----------------------------------------------|

e----------------------------------------------|
B---12-12---15---13p12---12-12-----------------|
G---12-12-12---12-----12-12-12-12-14p12-----12-|
D---12-12-12---12--------12-12-12------10h12---|
A-0--------0----0-------0-------0--------------|
E----------------------------------------------|

e--------------------------------------|
B---7-7---10--8p7------7-7-------------|
G---7-7-7---7-----7----7-7-7-9p7-----7-|
D---7-7-7---7-----7----7-7-7-----5h7---|
A-0-----0---0-----0--0-----0-----------|
E--------------------------------------|

e------------------------|
B---2-2---5--2-2---5p3---|
G---2-2-2----2-2-2-----2-| Not Fully sure about this bit but its as close as
D---2-2-2----2-2-2-----2-| i could get. Plus its not like anyone else has 
A-0-----0--0-----0-----0-| got any further. :/
E------------------------|

e------------|
B------------|
G--4p2-----2-|
D------0h2---|
A------------|
E------------|

Then pretty much just repeat the first half of the song.

Email : callum.666@live.co.uk
Tap to rate this tab
 
# A B C D E F G H I J K L M N O P Q R S T U V W X Y Z