Wolfmother - Year Of The Dragon tab

Verse:

-----------------------|-----------------|
-----------------------|-----------------|
-----------------------|-----------------|
----12---------10--12--|--8--8--8--10-10-|
-------10--12----------|--8--8--8--10-10-|
-10--------------------|--6--6--6--8--8--|

Chorus:

-----------|
-----------|
-----------|
-8------10-|
-8------10-|
-6------8--|

Solo is D minor pentatonic I think, not sure what it is exactly, as there are only live 
versions at the moment and Stockdale never seems to play the solo the exact same way. 
But it starts -10--12h- From there just improvise.

Middle/Organy bit:

-----------------------|------------------|-----------------|----------------|
-----------------------|------------------|-----------------|----------------|
-----------------------|-10-10-12--12-----|-10-10-12-12-15--|-17-17-17-17-15-|
-8------10-10-10-10-8--|-10-10-12--12-12--|-10-10-12-12-15--|-17-17-17-17-15-|
-8------10-10-10-10-8--|-8--8--10--10-12--|-8--8--10-10-13--|-15-15-15-15-13-|
-6------8--8--8--8--6--|--------------10--|-----------------|----------------|

-----------------|-----------------|----------------|---------|
-----------------|-----------------|----------------|---------|
-15-15-17-17-19--|-10-10-10-10-----|-17-17-17-17-15-|---------|
-15-15-17-17-19--|-10-10-10-10-12--|-17-17-17-17-15-|-8-8-8-8-|
-13-13-15-15-17--|-8--8--8--8--12--|-15-15-15-15-13-|-8-8-8-8-|
-----------------|-------------10--|----------------|-6-6-6-6-|
Tap to rate this tab
 
# A B C D E F G H I J K L M N O P Q R S T U V W X Y Z