Song name
# A B C D E F G H I J K L M N O P Q R S T U V W X Y Z

Wolfmother - Apple Tree tab

Riff 1

e|----------------------------------------------------------------|
B|----------------------------------------------------------------|
G|----------------------------------------------------------------|
D|-8---------------8---------------8---------------8--------------|
A|-8---------------8---------------8---------------8--------------|
E|-6---------------6---------------6---------------6--------------|

Riff 2

e|----------------------------------------------------------------|
B|----------------------------------------------------------------|
G|-----------------8----------------------------------------------|
D|-8-8-8-8-8-x-x---8---8-6----------------------------------------|
A|-8-8-8-8-8-x-x---6---8-6----------------------------------------|
E|-6-6-6-6-6-x-x-------6-4----------------------------------------|

Riff 3

e|--------------------------------------------------------------------------|
B|--------------------------------------------------------------------------|
G|--------------------------------------------------------------------------|
D|-8----------6---8----------6---8----------6---8----------6---8---------6--|
A|-8----------6---8----------6---8----------6---8----------6---8---------6--|
E|-6----------4---6----------4---6----------4---6----------4---6---------4--|

Riff 4

e|----------------------------------------------------------------|
B|----------------------------------------------------------------|
G|-6-6-6-6-6-6-6-6-6-6--------------------------------------------|
D|-6-6-6-6-6-6-6-6-6-6----6---8-----------------------------------|
A|-4-4-4-4-4-4-4-4-4-4----6---8-----------------------------------|
E|------------------------6---6-----------------------------------|

Riff 5

e|----------------------------------------------------------------|
B|----------------------------------------------------------------|
G|----------------------------------------------------------------|
D|-6--8--------------6h8-8----------------------------------------|
A|-6--8--------4h6/8----------------------------------------------|
E|-4--6----4h6----------------------------------------------------|

Riff 6

e|----------------------------------------------------------------|
B|---------------------------------9h11-11------------------------|
G|-6-8b---8p6---6-----------6h8/10--------------------------------|
D|------------8---8-8---6h8---------------------------------------|
A|----------------------------------------------------------------|
E|----------------------------------------------------------------|

Solo

e|-18-16----16-------------------------------------------------16h18--18---|
B|-------18----18-16-18-16-14-16-14-16-18----16p14-------14/18-------------|
G|-------------------------------------------------15----------------------|
D|-------------------------------------------------------------------------|
A|-------------------------------------------------------------------------|
E|-------------------------------------------------------------------------|

e|-20-18-16----16-----------------------------------------------------------|
B|----------18----18-16-18-16-16---------------------16-18----16p14---------|
G|---------------------------------15---15--------------------------15-15---|
D|--------------------------------------------------------------------------|
A|--------------------------------------------------------------------------|
E|--------------------------------------------------------------------------|

e|----16-18-20-18-16----16--------------------------------------------------|
B|-18----------------18----18-16-14-----------------------------------------|
G|----------------------------------15--------------------------------------|
D|--------------------------------------------------------------------------|
A|--------------------------------------------------------------------------|
E|--------------------------------------------------------------------------|

ORDER

Riff 1
Riff 2  x4
Riff 1
Riff 2  x4
Riff 3  x2
Riff 4  x3
Riff 1
Riff 2  x4
Riff 1
Riff 2  x4
Riff 3  x2
Riff 4  x3
Riff 5  x4
Riff 6  x4
Solo
Riff 1
Tap to rate this tab
 
# A B C D E F G H I J K L M N O P Q R S T U V W X Y Z