Song name
# A B C D E F G H I J K L M N O P Q R S T U V W X Y Z

Wolfmother - Pyramid tab

-------------------------------------------------------------------------------
			     Pyramid - Wolfmother
-------------------------------------------------------------------------------
Tabbed by:Dreadface
Email:light_a_man_on_fire@hotmail.com

Tuning: EADGBe
This is my first tab so dont be too judgemental thanks, i hope you enjoy :)

| /  slide up
| \  slide down
| h  hammer-on
| p  pull-off
| ~  hold note
| +  harmonic
| x  mute note


Intro/Chorus
e|18-16-15~-|18-16-15-13-11-|10~-10-11-13~-10-11-13~-10-11-13~-10-11-13~-|
B|----------|---------------|--------------------------------------------|
G|----------|---------------|--------------------------------------------|
D|----------|---------------|--------------------------------------------|
A|----------|---------------|--------------------------------------------|
E|----------|---------------|--------------------------------------------|

e|18-16-15|18-16-15-13-11-10-11-|
B|--------|---------------------|
G|--------|---------------------|
D|--------|---------------------|
A|--------|---------------------|
E|--------|---------------------|

Verse
e|----------------------------------|
B|----------------------------------|
G|----------------------------------|
D|-5-3-5-3-5-3-5-3-5-3-5-3-5-3-5--6-| Repeat 4x
A|-5-3-5-3-5-3-5-3-5-3-5-3-5-3-5--6-|
E|-3-3-3-3-3-3-3-3-3-3-3-3-3-3-3--8-|
 
e|----------------------------------|---------------|
B|----------------------------------|---------------|
G|----------------------------------|---------------|
D|-5-3-5-3-5-3-5-3-5-3-5-3-5-3-5--6-|-6---6---6---6-| Repeat 2x
A|-5-3-5-3-5-3-5-3-5-3-5-3-5-3-5--6-|-6---6---6---6-|
E|-3-3-3-3-3-3-3-3-3-3-3-3-3-3-3--8-|-8---8---8---8-|

Chorus 
e|18-16-15~-|18-16-15-13-11-|10~-10-11-13~-10-11-13~-10-11-13~-10-11-13~-|
B|----------|---------------|--------------------------------------------|
G|----------|---------------|--------------------------------------------|
D|----------|---------------|--------------------------------------------|
A|----------|---------------|--------------------------------------------|
E|----------|---------------|--------------------------------------------|

e|18-16-15|18-16-15-13-11-10-11-|
B|--------|---------------------|
G|--------|---------------------|
D|--------|---------------------|
A|--------|---------------------|
E|--------|---------------------|

Verse
e|---------------------------|
B|---------------------------|
G|---------------------------|
D|-5x5x5x5x5x5x5x5x----------|Repeat 4x
A|-5x5x5x5x5x5x5x5x--3p1--1--|
E|-3x3x3x3x3x3x3x3x-----3----|

e|-------------------------------------------------------------------------|
B|-------------------------------------------------------------------------|
G|-------------------------------------------------------------------------|
D|-12x12x12x12x12x12x12x12x------------------------------------------------|
A|-12x12x12x12x12x12x12x12x--10p8---8--10x10x10x10x---10-8---8-------------|
E|-10x10x10x10x10x10x10x10x-------10---8-x8-x8-x8-x--------10-10-8-10-8-6-3|

Bridge
e|------------------------------|
B|------------------------------|
G|------------------------------|
D|-5--10-5--10-8--10-5--3--5--3-|
A|-5--10-5--10-8--10-5--3--5--3-|
E|-3--8--3--8--6--8--3--1--3--1-|

Guitar solo
e|----------------------------------------------------|
B|-------------------------------------8b-8b-8b-------|
G|----------3-5-7-7-7p5p3-----------7b----------10-10-|
D|-5----3-5---------------5--3---3--------------------|
A|-5-3h5-----------------------5----------------------|
E|-3--------------------------------------------------|

e|----------------------------------------------------------|
B|------11-----11-----11-----11-----11-----11-----11-----11-|
G|-10h12--10h12--10h12--10h12--10h12--10h12--10h12--10h12---|
D|----------------------------------------------------------|
A|----------------------------------------------------------|
E|----------------------------------------------------------|

e|---------------------------------------------------------------|
B|-13-11--11-----------------------------------------------------|
G|------12--12-10-12-10--10--7-5--5-----------5b-5b-5b-5-3p0---0-|
D|---------------------12-------8--8-5-8-5--5----------------3---|
A|-----------------------------------------8---------------------|
E|---------------------------------------------------------------|

e|----------------------------------------------------|
B|-------------8-8-8--11--13b--13-13--13p11----11-13b-|
G|------------------------------------------12--------|
D|-5-5-5-3---3----------------------------------------|
A|---------5------------------------------------------|
E|----------------------------------------------------|

Verse
e|----------------------------------|
B|----------------------------------|
G|----------------------------------|
D|-5-3-5-3-5-3-5-3-5-3-5-3-5-3-5--6-| Repeat 4x
A|-5-3-5-3-5-3-5-3-5-3-5-3-5-3-5--6-|
E|-3-3-3-3-3-3-3-3-3-3-3-3-3-3-3--8-|

e|----------------|
B|----------------|
G|----------------|
D|-8---8---8---8--|
A|-8---8---8---8--|
E|-6---6---6---6--|

e|18-16-15|18-16-15-13-11-10-11-|
B|--------|---------------------|
G|--------|---------------------|
D|--------|---------------------|
A|--------|---------------------|
E|--------|---------------------|

Verse
e|---------------------------|
B|---------------------------|
G|---------------------------|
D|-5x5x5x5x5x5x5x5x----------|Repeat 4x
A|-5x5x5x5x5x5x5x5x--3p1--1--|
E|-3x3x3x3x3x3x3x3x-----3----|

e|-------------------------------------|
B|-------------------------------------|
G|-------------------------------------|
D|-12x12x12x12x12x12x12x12x------------|
A|-12x12x12x12x12x12x12x12x--10p8---8--|
E|-10x10x10x10x10x10x10x10x-------10---|

e|-------------------------------------------------------------------------|
B|-------------------------------------------------------------------------|
G|-------------------------------------------------------------------------|
D|-------------------------------------------------------------------------|
A|-10x10x10x10x10-8--8-------------10-8--8-------------10-8--8-------------|
E|-8-x8-x8-x8-x----10-10-8-10-8-6------10-10-8-10-8-6------10-10-8-10-8-6-3|


===============================================================================
Tap to rate this tab
# A B C D E F G H I J K L M N O P Q R S T U V W X Y Z