Song name
# A B C D E F G H I J K L M N O P Q R S T U V W X Y Z

Wolfmother - Tales From He Forest Of Gnomes tab

Tabbed by Rundle

Excellent song. My first tab. Please rate.

--------------------------
INTRO/VERSE 00:01 - 00:26
--------------------------

E:--------------------------------|-----------------3-2----------|
B:--------------------------------|------------------------5-----|
G:---------6------7-6-------------|--4------------------------4--|
D:-----------7-----------9-7------|---------5--------------------|
A:--------------------------------|----------5-------------------|
E:---5----------------------------|------------------------------|
                                                                    x3
E:---2--------------3-2---0-------|------------------------------|
B:---------3----------------3-----|------------------------------|
G:-----------2--------------------|--6---------------------------|
D:--------------------------------|------------------------------|
A:--------------------------------|------------------------------|
E:--------------------------------|------------------------------|

---------------------
BRIDGE 00:27 - 00:52
---------------------
This part was quite difficult as there are a lot of sounds happening but I heard these notes.

E: ---12------11----12----12-----|
B: --13-----12-----15----13------|
G:-------------------------------|         x3
D:-------------------------------|
A:-------------------------------|
E:-------------------------------|

--------------------
VERSE 00:53 - 01:09
--------------------

E:--------------------------------|-----------------3-2----------|
B:--------------------------------|------------------------5-----|
G:---------6------7-6-------------|--4------------------------4--|
D:-----------7-----------9-7------|---------5--------------------|
A:--------------------------------|----------5-------------------|
E: --5----------------------------|------------------------------|
                                                                                         
                                                                                        
                                                                           x2
E: --2--------------3-2---0-------|------------------------------|
B:---------3----------------3-----|------------------------------|
G:-----------2--------------------|--6---------------------------|
D:--------------------------------|------------------------------|
A:--------------------------------|------------------------------|
E:--------------------------------|------------------------------|

---------------------
CHORUS 01:10 - 01:43
---------------------

E:----------9---12--9--9h10p9-----|---------7---10--7--7h8p7-----|
B:-------10-------------------10--|-------8--------------------8-|
G:--------------------------------|------------------------------|
D:--7-----------------------------|--5---------------------------|
A:--7-----------------------------|--5---------------------------|
E:--5-----------------------------|--3---------------------------|
                                                                                         
                                                                                        
                                 x4
E:--------14---17--14--14h15p14---|---------9---12--9--9h10p9----|
B:------15---------------------10-|------10-------------------10-|
G:--------------------------------|------------------------------|
D:--12----------------------------|--7---------------------------|
A:--12----------------------------|--7---------------------------|
E:--10----------------------------|--5---------------------------|

---------------------
BRIDGE 01:44 - 02:08
---------------------

E: ---12------11----12----12-----|
B: --13-----12-----15----13------|
G:-------------------------------|         x3
D:-------------------------------|
A:-------------------------------|
E:-------------------------------|

--------------------
VERSE 02:09 - 02:25
--------------------

E:--------------------------------|-----------------3-2----------|
B:--------------------------------|------------------------5-----|
G:---------6------7-6-------------|--4------------------------4--|
D:-----------7-----------9-7------|---------5--------------------|
A:--------------------------------|----------5-------------------|
E: --5----------------------------|------------------------------|
                                                                                         
                                                                                        
x2
E: --2--------------3-2---0-------|------------------------------|
B:---------3----------------3-----|------------------------------|
G:-----------2--------------------|--6---------------------------|
D:--------------------------------|------------------------------|
A:--------------------------------|------------------------------|
E:--------------------------------|------------------------------|

----------------------
CHORUS 02:26 - 02:59
----------------------

E:----------9---12--9--9h10p9-----|---------7---10--7--7h8p7-----|
B:-------10-------------------10--|-------8--------------------8-|
G:--------------------------------|------------------------------|
D:--7-----------------------------|--5---------------------------|
A:--7-----------------------------|--5---------------------------|
E:--5-----------------------------|--3---------------------------|
                                                                                         
                                                                                        
x4
E:--------14---17--14--14h15p14---|---------9---12--9--9h10p9----|
B:------15---------------------10-|------10-------------------10-|
G:--------------------------------|------------------------------|
D:--12----------------------------|--7---------------------------|
A:--12----------------------------|--7---------------------------|
E:--10----------------------------|--5---------------------------|

--------------------
OUTRO 03:00 - 03:23
----------------------------------|
E:--------------------------------|
B: ----5-----5-----5-----5--------|
G: ---5-----4-----7-----2---------|
D:--------------------------------|
A:--------------------------------|
E:--------------------------------|

END
Tap to rate this tab
 
# A B C D E F G H I J K L M N O P Q R S T U V W X Y Z