Guitaretab - guitar tabs
Song name
# A B C D E F G H I J K L M N O P Q R S T U V W X Y Z

Wolfmother - Tales From The Forest Of Gnomes tab

Highlighted       Show chord diagrams
Tales from the Forest of Gnomes
I am sure this tab is 100% perfect.



Verse
   A           G           D         A 
E|---------------3--3-2-0--2--3-2-0---|
B|--2---3-2-0-----3---------3--------2|
G|---2-------------0---------2--------|
D|----2--------------------0----------|
A|-0---------------------------------0|
E|-------------3----------------------|

Bridge
  Am/C   B7     D2     A
|--------2------0-------------|
|-1------0------3------2------|
|-2------2------2------2------|
|-2------1------0------2------|
|-3------2-------------0------|
|-----------------------------|

Chorus
  A                   G              D              A   
|---9-10-12-10-9--------7-8-10-8-7-----14-15-17-------9-10-12-10-9----|
|-----------------10---------------8------------15-----------------10-|
|------------------------------------7--------------------------------|
|-7-------------------5--------------7--------------7-----------------|
|-7-------------------5--------------5--------------7-----------------|
|-5-------------------3-----------------------------5-----------------|

VERSE
A            G         D                  A
Oh my friend don't get caught in yesterday,
A              G                D                      A
All the things we've heard have left and made their way,

BRIDGE
Am/C            B7      D2                      A
Lower your guns even if love has turned to spite,
Am/C        B7        D2             A   
We may find the enemy waiting inside,
Am/C         B7         D2             A
Light the candle to see what may unfold,
[ Tab from: http://www.guitaretab.com/w/wolfmother/68719.html ]
VERSE
A         G                  D             A
If you listen to the sound within your mind,
A         G                  D              A
You may find your answer flowing in the tide,

CHORUS
A
Say goodbye to your sorrow,
G
And hello to tomorrow,
D
Well I hear the fiddlers call,
A
Say that love is here for all,
A
So I wrote her a letter,
G
And I tried to foget her,
D
Well I don't know id I'll go,
A
Can you hear the river flow,
A
Say goodbye to your sorrow,
G
And hello to tomorrow,
D
Well I hear the fiddlers call,
A
Say that love is here for all,

BRIDGE
Am/C            B7      D2                      A
Lower your guns even if love has turned to spite,
Am/C        B7        D2             A   
We may find the enemy waiting inside,
Am/C         B7         D2             A
Light the candle to see what may unfold,

VERSE
A            G               D               A
Oh my friend I hope your done with yesterday,
A             G                     D                  A
All the things we've heard have left and made their way,

CHORUS
A
Say goodbye to your sorrow,
G
And hello to tomorrow,
D
Well I hear the fiddlers call,
A
Say that love is here for all,
A
So I wrote her a letter,
G
And I tried to forget her,
D
Well I don't know if I'll go,
A
Can you hear the river flow,
A
Say goodbye to your sorrow,
G
And hello to tomorrow,
D
Well I hear the fiddlers call,
A
Say that love is here for all,

BRIDGE
Am/C            B7      D2                      A
Lower your guns even if love has turned to spite,
Am/C        B7        D2             A   
We may find the enemy waiting inside,
Am/C         B7         D2             A
Light the candle to see what may unfold,
Related for Tales From The Forest Of Gnomes tab