Song name
# A B C D E F G H I J K L M N O P Q R S T U V W X Y Z

Wolfmother - Vagabond tab

Band: Wolfmother
Song: Vagabond
Album: Wolfmother
Email: cops_23@hotmail.com

Intro 
guitar 1 (acoustic)
e-----------------------------------------------------------|
B-----2--------5--3p2------2--------------------------------|
G-----2--------------2-------2----4p2p0---2-----------------|
D--------0--------------2--------------0h2-2----------------|
A--0------0-----0--------0-----0--0-------------------------|
E-----------------------------------------------------------|

Verse (the above riff)

Chorus ("I'll tell you everything...")
e---3--3-3-3--3-3----2------3-3p2---------------------------|
B---3--3-3-3--3-3----3--3---------3-------------------------|
G---0--0-0-0--0-0----2----2---------------------------------|
D---0--0-0-0--0-0--0-0-------0------------------------------|x2
A---2-------------------------------------------------------|
E-3-3-------------------------------------------------------|
Tap to rate this tab
 
# A B C D E F G H I J K L M N O P Q R S T U V W X Y Z