Song name
# A B C D E F G H I J K L M N O P Q R S T U V W X Y Z

Wolfmother - Where Eagles Have Been tab

This is the first tab I've really spent time on, and I believe the first one I've 
to UG.
I noticed that every other tab for this song just wasn't very good, so I made my own.
Enjoy, and please rate it!

Key:
h= hammer-on
p= pull-off
/= slide up
\= slide down
b= bend
rb= release bend
|:---:|= repeat
The top part is lead guitar, the bottom part is rhythm


Verse:
0:00
e|--2-----2----2h3---0h2----1-----1---1---1p0------|
B|----3-----3------------3----3-----3---------3----|
G|------2-----------------------2---------------2--|
D|--0----------0---0-----0--0---------0-0-------0--|
A|-------------------------------------------------|
E|-------------------------------------------------|

e|------|
B|------|
G|------|
D|------|
A|------|
E|------|

0:28
e|--3-------3-----3-------3----------------------|
B|----3-0-----3-0---3-0-----0-1-------1-2---2-3--|
G|--------0-------------0-------0---------2------|
D|--------------------------------2--------------|
A|----------------------------3-----3---0--------|
E|--3--------------------------------------------|

e|------|
B|------|
G|------|
D|------|
A|------|
E|------|


0:33
e|--2-----2----2h3---0h2----1-----1---1---1p0------|
B|----3-----3------------3----3-----3---------3----|
G|------2-----------------------2---------------2--|
D|--0----------0---0-----0--0---------0-0-------0--|
A|-------------------------------------------------|
E|-------------------------------------------------|

e|--2--1--|
B|--3--3--|
G|--2--2--|
D|--0--0--|
A|--------|
E|--------|


0:55
e|--3-------3-----3-------3----------------------|
B|----3-0-----3-0---3-0-----0-1-------1-2---2-3--|
G|--------0-------------0-------0---------2------|
D|--------------------------------2--------------|
A|----------------------------3-----3---0--------|
E|--3--------------------------------------------|

e|--3--0-----|
B|--3--1--2--|
G|--0--0--2--|
D|--0--2--2--|
A|--2--3--0--|
E|--3--------|


Lead into chorus:
1:00
e|--2-----2----2h3---0h2---5-----5-7-7-8-7--|
B|----3-----3------------3---6--------------|
G|------2------------------5---5---7--------|
D|--0----------0---0-----0------------------|
A|------------------------------------------|
E|------------------------------------------|

e|--2--5--7--|
B|--3--6--8--|
G|--2--5--7--|
D|--0--------|
A|-----------|
E|-----------|

Chorus:
1:11
e|--8---10-|:-5--7--10-10-10-:|x4------|
B|--8---10-|:-6--8--10-10-10-:|--------|
G|--9---11-|:-5--7--11-11-11-:|--------|
D|---------|:----------------:|--------|
A|---------|:----------------:|--------|
E|---------|:----------------:|--------|

e|---------|:----------------:|x4------|
B|---------|:----------------:|--------|
G|---------|:----------------:|--------|
D|--10--12-|:-3--5--12-12-12-:|--------|
A|--10--12-|:-3--5--12-12-12-:|--------|
E|--8---10-|:-1--3--10-10-10-:|--------|
You could play both parts on one guitar, but it sounds much better on two, since the top 
strings are so much louder in the song.


1:37 (both guitars)
e|------------------------------------|
B|------------------------------------|
G|------------------------------------|
D|--12--10--7--5--12--10--7--5--------|
A|--12--10--7--5--12--10--7--5--------|
E|--10--8---5--3--10--8---5--3--5--5--|


2:10
e|--2-----2----2h3---0h2----1-----1---1---1p0------|
B|----3-----3------------3----3-----3---------3----|
G|------2-----------------------2---------------2--|
D|--0----------0---0-----0--0---------0-0-------0--|
A|-------------------------------------------------|
E|-------------------------------------------------|

e|--2--1--|
B|--3--3--|
G|--2--2--|
D|--0--0--|
A|--------|
E|--------|


2:28
e|--3-------3-----3-------3----------------------|
B|----3-0-----3-0---3-0-----0-1-------1-2---2-3--|
G|--------0-------------0-------0---------2------|
D|--------------------------------2--------------|
A|----------------------------3-----3---0--------|
E|--3--------------------------------------------|

e|--3--0-----|
B|--3--1--2--|
G|--0--0--2--|
D|--0--2--2--|
A|--2--3--0--|
E|--3--------|


2:35
e|--8---10-|:-5--7--10-10-10-:|x4------|
B|--8---10-|:-6--8--10-10-10-:|--------|
G|--9---11-|:-5--7--11-11-11-:|--------|
D|---------|:----------------:|--------|
A|---------|:----------------:|--------|
E|---------|:----------------:|--------|

e|---------|:----------------:|x4------|
B|---------|:----------------:|--------|
G|---------|:----------------:|--------|
D|--10--12-|:-3--5--12-12-12-:|--------|
A|--10--12-|:-3--5--12-12-12-:|--------|
E|--8---10-|:-1--3--10-10-10-:|--------|


3:00 (both guitars)
e|------------------------------|
B|------------------------------|
G|------------------------------|
D|--12--10--7--5--12--10--7--5--|
A|--12--10--7--5--12--10--7--5--|
E|--10--8---5--3--10--8---5--3--|


3:21
e|--10--8---9--7--10--8---9--7--10--|
B|--10--8---10-8--10--8---10-8--10--| just improvise the strumming pattern
G|--11--9---9--7--11--9---9--7--11--|
D|----------------------------------|
A|----------------------------------| hold the last chord
E|----------------------------------|

e|------------------------------|
B|------------------------------|
G|------------------------------|
D|--12--10--7--5--12--10--7--5--| these are still held notes
A|--12--10--7--5--12--10--7--5--|
E|--10--8---5--3--10--8---5--3--|


3:41
organ interlude


3:51
e|--------------------------------------|
B|------------------12------12------12--|
G|--9---11--14--9---12------12------12--|
D|--10--12--15--10--12--10--12--10--12--|
A|--10--12--15--10--10--10--10--10--10--|
E|--8---10--13--8-------8-------8-------|


Solo:
Note: The chords are written in time with the solo.
4:03
e|------------------------------------------13----13-15--|
B|------------------------------------13-15----15--------|
G|---------------------10----10-12/14--------------------|
D|---------------10-12----12-----------------------------|
A|-------8-10/12-----------------------------------------|
E|--8h10-------------------------------------------------|

e|-------------------------------------------------------|
B|-------------------------------------------------------|
G|--11-----------------------14--------------------------|
D|--12-----------------------15--------------------------|
A|--12-----------------------15--------------------------|
E|--10-----------------------13--------------------------|


when it goes 15b17-17-17, just hold the bend, don't use the 17th fret

e|--15b17-17-17-17-17-17rb-13----13--------------------|
B|----------------------------15----15~15~15~15~15~15~-|
G|-----------------------------------------------------|
D|-----------------------------------------------------|
A|-----------------------------------------------------|
E|-----------------------------------------------------|

e|-----------------------------------------------------|
B|----------------------------------12----12----12-----|
G|--9-------------------------------12----12----12-----|
D|--10------------------------------12-10-12-10-12-10--|
A|--10------------------------------10-10-10-10-10-10--|
E|--8----------------------------------8-----8-----8---|


e|---------------------------------------------------|
B|--15p13----13--------------------------------------|
G|--------15----14-12-14\-10-12hb-10----10-----------|
D|-----------------------------------12----12-10h12--|
A|---------------------------------------------------|
E|---------------------------------------------------|

e|---------------------------------------------------|
B|---------------------------------------------------|
G|--11-----------------------------------------------|
D|--12-----------------------------------------------|
A|--12-----------------------------------------------|
E|--10-----------------------------------------------|


e|--------------------------------------------|
B|----------------------------------------15--|
G|--------------------------------------------|
D|--10----10----------------------------------|
A|-----12----12-10h12----10-------------------|
E|--------------------13----13-10-13-10p8-----|

e|--------------------------------------------|
B|--------------------------------------------|
G|--14----------------------------------------|
D|--15----------------------------------------|
A|--15----------------------------------------|
E|--13----------------------------------------|


e|--15b16-15b17-17-17-17-17-15p13--------------------------------------|
B|--------------------------------15p13-15p13-15p13----13--------------|
G|--------------------------------------------------14----14-12-14~----|
D|---------------------------------------------------------------------|
A|---------------------------------------------------------------------|
E|---------------------------------------------------------------------|

e|---------------------------------------------------------------------|
B|--------------------------12----------------12----------------12-----|
G|--9-----------------------12----------------12----------------12-----|
D|--10----------------------12-------10-------12-------10-------12-10--|
A|--10----------------------10-------10-------10-------10-------10-10--|
E|--8--------------------------------8-----------------8-----------8---|


4:22
e|-------------------------------------------------------------------------|
B|-------------------------------------------------------------------------|
G|-------------------------------------------------------------------------|
D|----------5h7p5-----------5h7p5-------------8h10p8-------------8h10p8----|
A|------5h7-------7-----5h7-------7------8h10--------8------8h10--------8--|
E|--5h7-------------5h7-------------8h11---------------8h11----------------|

e|-------------------------------------------------------------------------|
B|-------------------------------------------------------------------------|
G|--4-------------------------------9--------------------------------------|
D|--7-------------------------------10-------------------------------------|
A|--7-------------------------------10-------------------------------------|
E|--5-------------------------------8--------------------------------------|


4:27 (both guitars)
e|--------------------------------|
B|--7--7--7--7--7-5-7--7--7--7-5--|
G|--7--7--7--7--7-5-7--7--7--7-5--|
D|--7--7--7--7--7-5-7--7--7--7-5--|
A|--5--5--5--5--5-3-5--5--5--5-3--|
E|--------------------------------|


4:32
e|-------------------------------------------------------------------------|
B|-------------------------------------------------------------------------|
G|-------------------------------------------------------------------------|
D|----------5h7p5-----------5h7p5-------------8h10p8-------------8h10p8----|
A|------5h7-------7-----5h7-------7------8h10--------8------8h10--------8--|
E|--5h7-------------5h7-------------8h11---------------8h11----------------|

e|-------------------------------------------------------------------------|
B|-------------------------------------------------------------------------|
G|--4-------------------------------9--------------------------------------|
D|--7-------------------------------10-------------------------------------|
A|--7-------------------------------10-------------------------------------|
E|--5-------------------------------8--------------------------------------|


4:37 (both guitars)
e|------------------------------------------------------------------------|
B|--7--7--7--7--7-5-7--7--7--7--7-5-7--7--7--7--7-5-7--7--7--7--7-5-------|
G|--7--7--7--7--7-5-7--7--7--7--7-5-7--7--7--7--7-5-7--7--7--7--7-5-2-----|
D|--7--7--7--7--7-5-7--7--7--7--7-5-7--7--7--7--7-5-7--7--7--7--7-5-2-----|
A|--5--5--5--5--5-3-5--5--5--5--5-3-5--5--5--5--5-3-5--5--5--5--5-3-0--0--|
E|------------------------------------------------------------------------|


4:59
e|--2-----2----2h3---0h2----1-----1---1---1p0------|
B|----3-----3------------3----3-----3---------3----|
G|------2-----------------------2---------------2--|
D|--0----------0---0-----0--0---------0-0-------0--|
A|-------------------------------------------------|
E|-------------------------------------------------|

e|--2--1--|
B|--3--3--|
G|--2--2--|
D|--0--0--|
A|--------|
E|--------|


5:11
e|--3-------3-----3-------3---------------------2--|
B|----3-0-----3-0---3-0-----0-1-------1-2---2-3-3--|
G|--------0-------------0-------0---------2-----2--|
D|--------------------------------2-------------0--|
A|----------------------------3-----3---0----------|
E|--3----------------------------------------------|

e|--3--0-----|
B|--3--1--2--|
G|--0--0--2--|
D|--0--2--2--|
A|--2--3--0--|
E|--3--------|

Ending: Just turn on the distortion and make random noises.
Tap to rate this tab
# A B C D E F G H I J K L M N O P Q R S T U V W X Y Z