Song name
# A B C D E F G H I J K L M N O P Q R S T U V W X Y Z

Wolfmother - Pleased To Meet You tab

------------------------------------------------------------------------
		    Pleased to meet you-Wolfmother
-------------------------------------------------------------------------
Tabbed by: Oasis-Fanatic
Email: Matthewking11@hotmail.com

Tuning: Standard

Intro: 0:00

Gtr 1

e|---0h5------------0h5------------0h5-------------------------|
B|-------3h5p3----------3h5p3----------3h5p3-------------------|
G|-2-------------2--------------2------------------------------|
D|-2-------------2--------------2--------------5-5-5-----------|
A|-0-------------0--------------0--------------5-5-5-----------|
E|---------------------------------------------3-3-3-----------|

Gtr 2

e|--------------------------------------------------------------|
B|--------------------------------------------------------------|
G|--------------------------------------------------------------|
D|-----------------------------------------------5-5-5----------|
A|-----------------------------------------------5-5-5----------|
E|-----------------------------------------------3-3-3----------|

00:03
Gtr 1

e|---0h5------------0h5------------0h5-------------------------|
B|-------3h5p3----------3h5p3----------3h5p3-------------------|
G|-2-------------2--------------2------------------------------|
D|-2-------------2--------------2--------------5-5-5-----------|
A|-0-------------0--------------0--------------5-5-5-----------|
E|---------------------------------------------3-3-3-----------|

e|-------------------------------------------------------------|
B|-------------------------------------------------------------|
G|-2-------------2--------------2------------------------------|
D|-2-------------2--------------2---------------5-5-5----------|
A|-0-------------0--------------0---------------5-5-5----------|
E|----------------------------------------------3-3-3----------|

00:10

Gtr 1 & 2

Repeat throughout verse
e|-------------------------------------------------------------|
B|-------------------------------------------------------------|
G|-2-------------2--------------2------------------------------|
D|-2-------------2--------------2---------------5-5-5----------|
A|-0-------------0--------------0---------------5-5-5----------|
E|----------------------------------------------3-3-3----------|

00:34

Gtr 1 & 2 "Riff A"
e|-------------------------------------------------|
B|-------------------------------------------------|
G|-------------------------------------------------|
D|-3~~~~~~~~~5-------------------------------------|
A|-3~~~~~~~~~5---Intro riff------------------------|
E|-1~~~~~~~~~3-------------------------------------|

2nd time 00:39

Gtr 1 & 2 "Riff B"
e|----------------------------------------------|
B|----------------------------------------------|
G|-----------------5---5--7--2~~~~~-------------|
D|-3~~~~~~~~~2-----5---5--7--2~~~~~-------------|
A|-3~~~~~~~~~2-----3---3--5--0~~~~~-------------|
E|-1~~~~~~~~~0----------------------------------|

Chorus: 00:56

Gtr 1 & 2
e|-----------------------------------------------|
B|-----------------------------------------------|
G|-2--2-2-3-4-5--5-5-7-9-10--10-10-10-9-9--7-7-7-|
D|-2--2-2-3-4-5--5-5-7-9-10--10-10-10-9-9--7-7-7-|
A|-0--0-0-1-2-3--3-3-5-7-8---8--8--8--7-7--5-5-5-|
E|-----------------------------------------------|

Intro riff |01:20

Verse |01:28

Riff A |01:43

Intro riff |01:47

riff B |01:51

Gtr 1
e|--5~~~~--------8b10-10101010101010r8b1010101010-feedback-|
B|---------------------------------------------------------|
G|---------------------------------------------------------|<--Chorus Rhythm
D|---------------------------------------------------------|
A|---------------------------------------------------------|
E|---------------------------------------------------------|

Chorus |02:06

Solo |02:29

SOLO:
e|------------------------------5--8--|
B|--------------------------5-8-------|
G|--------------------5--7------------|
D|--------------5--7------------------|
A|-0--3--5--7-------------------------|
E|------------------------------------|

e|-8b10--101010101010101010101010s---|
B|-----------------------------------|
G|-----------------------------------|
D|-----------------------------------|
A|-----------------------------------|
E|-----------------------------------|

   02:44
e|-----------------------------------------------------|
B|-----------------------------------------------------|
G|-0h2p0h2p0h2--4h5p4h5p4h5--4h5p4h5p4h5--5h7p5h7p5h7--|
D|-----------------------------------------------------|
A|-----------------------------------------------------|
E|-----------------------------------------------------|

e|-----------------------------------------------------|
B|-----------------------------------------------------|
G|-0h2p0h2p0h2--4h5p4h5p4h5--4h5p4h5p4h5--5h7p5h7p5h7--|
D|-----------------------------------------------------|
A|-----------------------------------------------------|
E|-----------------------------------------------------|

e|-----------------------------------------------------|
B|-----------------------------------------------------|
G|-0h2p0h2p0h2--4h5p4h5p4h5--4h5p4h5p4h5--5h7p5h7p5h7--|
D|-----------------------------------------------------|
A|-----------------------------------------------------|
E|-----------------------------------------------------|

e|-----------------------------------------------------|
B|-----------------------------------------------------|
G|-0h2p0h2p0h2--4h5p4h5p4h5--4h5p4h5p4h5--5h7p5h7p5h7--|
D|-----------------------------------------------------|
A|-----------------------------------------------------|
E|-----------------------------------------------------|
   02:59
e|-----------------------------8h10p8h10p8h10--10h12p10h12p10h12-|
B|--------------8h10p8h10p8h10-----------------------------------|
G|--7h9p7h9p7h9--------------------------------------------------|
D|---------------------------------------------------------------|
A|---------------------------------------------------------------|
E|---------------------------------------------------------------|
   03:03
e|------------15h17p15h17p15h17--20h22p20h22p20h22--------|
B|--------------------------------------------------------|
G|--------------------------------------------------------|
D|--------------------------------------------------------|
A|--------------------------------------------------------|
E|--------------------------------------------------------|

e|------------15h17p15h17p15h17--20h22p20h22p20h22--------|
B|--------------------------------------------------------|
G|--------------------------------------------------------|
D|--------------------------------------------------------|
A|--------------------------------------------------------|
E|--------------------------------------------------------|

e|------------15h17p15h17p15h17--20h22p20h22p20h22--------|
B|--------------------------------------------------------|
G|--------------------------------------------------------|
D|--------------------------------------------------------|
A|--------------------------------------------------------|
E|--------------------------------------------------------|

e|------------15h17p15h17p15h17--20h22p20h22p20h22--------|
B|--------------------------------------------------------|
G|--------------------------------------------------------|
D|--------------------------------------------------------|
A|--------------------------------------------------------|
E|--------------------------------------------------------|
   03:10
e|17---17----17---17----17---17~----22---22----24--24b-sr-----|
B|------------------------------------------------------------|
G|------------------------------------------------------------|
D|------------------------------------------------------------|
A|------------------------------------------------------------|
E|------------------------------------------------------------|

Chorus| 03:57

End| 04:32

e|--------------------------------------------------------|
B|--------------------------------------------------------|
G|--2--2--2-----------2---2---2---------------2---------2-|
D|--2--2--2---5-5-5---2---2---2---5-5-5-------2--5-5-5--2-|
A|--0--0--0---5-5-5---0---0---0---5-5-5-------0--5-5-5--0-|
E|------------3-3-3---------------3-3-3----------3-3-3----|

| /  slide up
| \  slide down
| h  hammer-on
| p  pull-off
| ~  vibrato
| +  harmonic
| x  Mute note
| sr Slow releadse

Song order:

Intro
1st verse
Riff A
Intro riff
Riff B
Chorus
Intro riff
2nd verse
Riff A
Intro riff
Riff B
Pre chorus (mini solo)
Chorus
Solo
Chorus
End(Outro)

Ill work on the lyrics if this gets accepted

anyway if you have any doubts about this tab contact me via PM or my e-mail adress 
Ive tried to tab it as clear as possible and show timing as well.
Tap to rate this tab
 
# A B C D E F G H I J K L M N O P Q R S T U V W X Y Z