Song name
# A B C D E F G H I J K L M N O P Q R S T U V W X Y Z

Wolfmother - Earths Rotation Around The Sun tab

Help us improve GuitareTab! Take a short survey!
-------------------------------------------------------------------------------
			     The Earths Rotation Around the Sun - Wolfmother
-------------------------------------------------------------------------------
Tabbed by:BRANDEN
Email: branden_mc@hotmail.com

Tuning: Standard

Allright...i dont know if it's 100% right, Mostly cause i cant figure out the  Verse 
or whatever...i think it's like the bassist using his sweet ass little keyboard :p Anywho, 
tried my Best cause i didn't see a tab for this anywhere


e|---------------------------------------------------------------------------|
B|---------------------------------------------------------------------------|
G|---------------------------------------------------------------------------|
D|---------------------------------------------------------------------------|
A|---------------------------------------------------------------------------|
E|12-------------------------------------------------------------------------|
   ^----(Hit this note how ever many times you have to)

e|---------------------------------------------------------------------------|
B|---------------------------------------------------------------------------|
G|---------------------------------------------------------------------------|
D|---9~~~---9~~~-------------------------------------------------------------|
A|-7------7------------------------------------------------------------------|
E|---------------------------------------------------------------------------|
    This might be what you hear, but iwht like a wah pedal or something, i don't know. 
what i think

Chorus
e|---------------------------------------------------------------------------|
B|---------------------------------------------------------------------------|
G|-999-999-999-9-7-7---------------------------------------------------------|
D|-999-999-999-9-7-7---------------------------------------------------------|
A|-777-777-777-7-5-5---------------------------------------------------------|
E|---------------------------------------------------------------------------|
   It's like one two three, one two three, one two three but fast if that helps
Related for Earths Rotation Around The Sun tab