Song name
# A B C D E F G H I J K L M N O P Q R S T U V W X Y Z

Wolfsheim - Sparrows And The Nightingales tab

-------------------------------------------------------------------------------
               Sparrows and the Nightingales - Wolfsheim
-------------------------------------------------------------------------------

Email: fashionbomb91@hotmail.com


Tuning:

RIFF1-Main Riff

e|-15--17-18-17-15-17-13------------15--17-18-17-15-17-13--------------------|
B|---------------------------------------------------------------------------|
G|---------------------------------------------------------------------------|
D|---------------------------------------------------------------------------|
A|------------------------77776644------------------------77776644-----------|
E|------------------------55554422------------------------55554422-----------|
pm                        ........                        ........

RIFF2
e|---------------------------------------------------------------------------|
B|---------------------------------------------------------------------------|
G|-8---5--7--/15-14--8---5--7------------------------------------------------|
D|---------------------------------------------------------------------------|
A|-----------------------------77776644--------------------------------------|
E|-----------------------------55554422--------------------------------------|
pm                             ........

RIFF3-Verse
e|------------------------------------------------------------|
B|------------------------------------------------------------|
G|------------------------------------------------------------|
D|------------------------------------------------------------|
A|-2211221122112211221166665533-2211221122112211221177776644--|
E|--------------------------------------------------55554422--|
pm .........................................................

RIFF4 hard to hear, Ill do it later

RIFF5 the last 2 choruses change a bit
e|-15--17-18-17-15-17-13------------15--17-18-17-15-17-13--------------------|
B|---------------------------------------------------------------------------|
G|------------------------10h11-8~------------------------10h11-8~-----------|
D|---------------------------------------------------------------------------|
A|---------------------------------------------------------------------------|
E|---------------------------------------------------------------------------|


Im sure this is correct or close enough. Its fun to play.
e-mail me for corrections or ideas. and please rate.

| /  slide up
| \  slide down
| h  hammer-on
| p  pull-off
| ~  vibrato
| +  harmonic
| x  Mute note
===============================================================================
Tap to rate this tab
 
# A B C D E F G H I J K L M N O P Q R S T U V W X Y Z