Song name
# A B C D E F G H I J K L M N O P Q R S T U V W X Y Z

Wolftron - Simple Sunshine tab

-------------------------------------------------------------------------------
			                              Simple Sunshine - Wolftron
-------------------------------------------------------------------------------
Tabbed by:James LE

Tuning: Half a Step Down.

intro:

E|---x-------x-|
A|---2-------3-|
D|---2-------3-|
G|---3----3--2-|
B|---3--3----1-|
e|---3-------0-|

verse:

E|--x-x--x--x--x--x--x--x--|
A|--x-x--3--3--3--2--3--3--|
D|--x-x--2--2--3--2--3--2--|
G|--x-x--0--3--2--3--2--3--|
B|--x-x--1--1--1--3--1--1--|
e|--x-x--0--0--0--3--0--0--| Repeat

chorus:

E|--x--x--x--x--x--x--|
A|--3--3--3--2--3--3--|
D|--2--2--3--2--3--2--|
G|--0--3--2--3--2--3--|
B|--1--1--1--3--1--1--|
e|--0--0--0--3--0--0--| Repeat

bridge:

E|--x--x--x--x--x--x--|
A|--3--3--3--2--3--3--|
D|--2--2--3--2--3--2--|
G|--0--3--2--3--2--3--|
B|--1--1--1--3--1--1--|
e|--0--0--0--3--0--0--|

outro:

E|-x--|
A|-3~-|
D|-2~-|
G|-0~-|
B|-1~-|
e|-x--|


| /  slide up
| \  slide down
| h  hammer-on
| p  pull-off
| ~  vibrato
| +  harmonic
| x  Mute note
===============================================================================
Tap to rate this tab
# A B C D E F G H I J K L M N O P Q R S T U V W X Y Z