Song name
# A B C D E F G H I J K L M N O P Q R S T U V W X Y Z

Wolftron - Uglybird tab

Uglybird By Wolftron.
tuning is half step down D#A#F#C#G#D#

D#---------------------------------------------------------------------------|
A#---1-----1---1-----1---1-----1---1-----1---0-----0---------0-----0-------0-|
F#---------------------------------------------------------------------------|
C#-----0h2-------0h2-------0h2-------0h2-------------------------------------|
G#-0---------0---------0---------0-------------0h2-----0h2-----0h2-----0h2---|
D#-----------------------------------------3---------3-----3---------3-------|


D#---------------------------------------------------------------------------|
A#---1-----1---1-----1---1-----1---1-----1---0-----0---------0-----0-------0-|
F#---------------------------------------------------------------------------|
C#-----0h2-------0h2-------0h2-------0h2-------------------------------------|
G#-0---------0---------0---------0-------------0h2-----0h2-----0h2-----0h2---|
D#-----------------------------------------3---------3-----3---------3-------|


D#--------------------------------------------------------------------------|
A#----1---1---1---1----1---1---1---1----0---0---0---0----0---0---0---0------|
F#--------------------------------------------------------------------------|
C#------2-------2--------2-------2------------------------------------------|
G#--0-------0--------0-------0------------2-------2--------2-------2--------|
D#------------------------------------3-------3--------3-------3------------|


D#--------------------------------------------------------------------------|
A#----1---1---1---1----1---1---1---1----0---0---0---0----0---0---0---0------|
F#--------------------------------------------------------------------------|
C#------2-------2--------2-------2------------------------------------------|
G#--0-------0--------0-------0------------2-------2--------2-------2--------|
D#------------------------------------3-------3--------3-------3------------|


D#--------------------------------------------------------------------------|
A#----3---3---3---3----3---3---3---3----1---1---1---1----1---1---1---1------|
F#--------------------------------------------------------------------------|
C#------4-------4--------4-------4--------2-------2--------2-------2--------|
G#--2-------2--------2-------2--------0-------0--------0-------0------------|
D#--------------------------------------------------------------------------|

D#--------------------------------------------------------------------------
A#----3---3---3---3---3-----3---3-----3---3-----3---3-----3---3---3---3---3-
F#--------------------------------------------------------------------------
C#----------------------0h2-------0h2-------0h2-------0h2-------------------
G#------0-------2---3---------3---------3---------3-------------0-------2---
D#--2-------3-----------------------------------------------2-------3-------

D#--------------------------------------------------------------------------|
A#---3-----3---3-----3---3-----3---3-----3---1-----1---1-----1---1-----1----|
F#--------------------------------------------------------------------------|
C#-----0h2-------0h2-------0h2-------0h2-------0h2-------0h2-------0h2------|
G#-3---------3---------3---------3---------0---------0---------0---------0--|
D#--------------------------------------------------------------------------|

D#-----
A#---1-
F#-----
C#0h2--
G#-----
D#-----

D#--------------------------------------------------------------------------|
A#---0-----0---0-----0---0-----0---0-----0---1---1---1---1----1---1---1---1-|
F#--------------------------------------------------------------------------|
C#---------------------------------------------2-------2--------2-------2---|
G#-----0h2-------0h2-------0h2-------0h2---0-------0--------0-------0-------|
D#-3---------3---------3---------3------------------------------------------|


D#--------------------------------------------------------------------------|
A#----0---0---0---0----0---0---0---0----3---3---3---3----3---3---3---3------|
F#--------------------------------------------------------------------------|
C#----------------------------------------4-------4--------4-------4--------|
G#------2-------2--------2-------2----2-------2--------2-------2------------|
D#--3-------3--------3-------3----------------------------------------------|


D#--------------------------------------------------------------------------|
A#----1---1---1---1----1---1---1---1----3---3---3---3----3-----3---3-----3--|
F#--------------------------------------------------------------------------|
C#------2-------2--------2-------2------------------------------------------|
G#--0-------0--------0-------0------------0-------2--------0h2-------0h2----|
D#------------------------------------2-------3--------3---------3----------|


D#--------------------------------------------------------------------------|
A#----3-----3---3-----3----3---3---3---3----3-----3---3-----3----3-----3----|
F#--------------------------------------------------------------------------|
C#------0h2-------0h2-------------------------0h2-------0h2--------0h2------|
G#--3---------3--------------0-------2----3---------3----------3---------3--|
D#-----------------------2-------3------------------------------------------|

D#---------|
A#-3-----3-|
F#---------|
C#---0h2---|
G#---------|
D#---------|


D#--------------------------------------------------------------------------|
A#----3---3---3---3---3-----3---3-----3---3-----3---3-----3---1---1---3---3-|
F#--------------------------------------------------------------------------|
C#--------------------------------------------------------------2-----------|
G#------2-------0-------0h2-------0h2-------0h2-------0h2---0-------2---0---|
D#--0-------2-------3---------3---------3---------3-------------------------|


D#---------------------------------------------------------------------------|
A#----3-----3---3-----3----3-----3---3-----3----3---3---3---3----3-----3---3-|
F#---------------------------------------------------------------------------|
C#------0h2-------0h2--------0h2-------0h2--------2-------0--------0h2-------|
G#--3---------3----------3---------3-----------------------------------------|
D#--------------------------------------------0-------2--------3---------3---|

D#---------|
A#-3-----3-|
F#---------|
C#---0h2---|
G#---------|
D#---------|


D#--------------------------------------------------------------------------|
A#----3-----3---3-----3----1---1---3---3----3-----3---3-----3-----3-----3---|
F#--------------------------------------------------------------------------|
C#---------------------------2-------0--------0h2-------0h2---------0h2-----|
G#------0h2-------0h2----0-------2--------3---------3-----------3---------3-|
D#--3---------3-------------------------------------------------------------|


D#---------|
A#-3-----3-|
F#---------|
C#---0h2---|
G#---------|
D#---------|


D#--------------------------------------------------------------------------|
A#----3---3---3---3----3---3---3---3----3---3---3---3----1---1---3---3------|
F#--------------------------------------------------------------------------|
C#---------------------------------------------------------2-------0--------|
G#------2-------0--------2-------2--------2-------2----0-------2------------|
D#--0-------2--------3-------3--------3-------3-----------------------------|

D#--------------------------------------------------------------------------|
A#----3---3---3---3----3---3---3---3----3---3---3---3----3---3---3---3------|
F#--------------------------------------------------------------------------|
C#------2-------2--------2-------2--------2-------0--------2-------2--------|
G#--3-------3--------3-------3----------------------------------------------|
D#------------------------------------0-------2--------3-------3------------|


D#--------------------------------------------------------------------------|
A#----3---3---3---3---1---1---3---3---3---3---3---3----3---3---3---3------3-|
F#----------------------------------------------------------------------0---|
C#----------------------2-------0-------2-------2--------2-------2------2---|
G#------2-------2---0-------2-------3-------3--------3-------3--------3-----|
D#--3-------3---------------------------------------------------------------|

D#--0--
A#-----
F#-----
C#-----
G#-----
D#-----
Tap to rate this tab
# A B C D E F G H I J K L M N O P Q R S T U V W X Y Z