Song name
# A B C D E F G H I J K L M N O P Q R S T U V W X Y Z

Wolftron - Stones tab

-------------------------------------------------------------------------------
			     STONES - Wolftron
-------------------------------------------------------------------------------
Tabbed by: sarahyangg
Email: sarah.yangg@gmail.com

Tuning: Standard (EADGBe)

i tried compressing 2 guitars into 1 guitar part.
i will try to figure out the rest of it soon!
listen to the song for the rhythm.
my video tutorial: www.youtube.com/thisprovlove

intro/verse:

e|-----------------1----------------------1-----------------1-----1----------|
B|---------1-------------1--1----4/3--1------4p3-4-4p3-4-4---3-3-1--3--------|
G|--------------2-----2---3--------------------------------------------------|
D|---------------------------------------------------------------------------|
A|---0-0---------------------------------------------------------------------|
E|----5----------------------------------------------------------------------|

e|-----------------1---------------------------------------------------------|
B|-------------------1-------------------------------------------------------|
G|---3p2-3-3p2h3----2-2------------------------------------------------------|
D|---------------------------------------------------------------------------|
A|---------------------------------------------------------------------------|
E|---------------------------------------------------------------------------|


/ slide
p pull off
h hammer on

===============================================================================
Tap to rate this tab
 
# A B C D E F G H I J K L M N O P Q R S T U V W X Y Z