Guitaretab - guitar tabs
Song name
# A B C D E F G H I J K L M N O P Q R S T U V W X Y Z

Wolftron - Blueberry Waves tab

Highlighted       Show chord diagrams
------------------------------------------------------------------------
			  BLUEBERRY WAVES - Wolftron
------------------------------------------------------------------------
Tabbed by: sarahyangg
Email: sarah.yangg@gmail.com

Tuning: Standard
Iíve posted a cover at my youtube Thisprovlove.

Chords used:
    Am     Em     G     D     D2     C     C2     C3
e|----------------3-----2--------------------------------------|
B|--1-------------------3-----3------3-----1-------------------|
G|--2-------------------2--------------------------------------|
D|--2------2------------------4------2-----2------2------------|
A|---------2------2-----------5------3-----3------3------------|
E|----------------3--------------------------------------------|

INTRO: muted strumming
e|--x--x--x--xx---|
B|--x--x--x--xx---|
G|--x--x--x--xx---|
D|--x--x--x--xx---|
A|--x--x--x--xx---|
E|--x--x--x--xx---|


VERSE 1:
Am      Em
Beware.
G             D             Am       Em      D2
The stars are cursing every step you take from here.
Am      Em     G        D                   Am      Em              D2
And I'm scared but I'm convinced that I was made to face what you never dared.
         Em     C3       G              C3
So move along I won't be back until I'm done.


CHORUS:
             Am   Em   G        D               Am   Em
If you can't find love above an endless burning ocean,
G            D            Am    Em
Then I can't be a part of your love.
G         D            Am   Em     C2
I'm gonna swim against your waves.


[ Tab from: http://www.guitaretab.com/w/wolftron/175484.html ]
AFTER CHORUS:
Am   Em   G   D   Am   Em   D2   D2


VERSE 2:
Am   Em  G          D               Am   Em       D2
The time it took to see the end was blinding this time.
Am Em G              D             Am  Em    D2
So I saw through the eyes of a man dying in white.
      Em         C3      G             C3
Move along, this life is leaving you behind.


CHORUS:
             Am   Em   G        D               Am   Em
If you can't find love above an endless burning ocean,
G            D            Am    Em
Then I can't be a part of your love.
G         D            Am   Em     C2
I'm gonna swim against your waves.


BRIDGE:
Em
I am not your enemy
    C                                   Am
But things can change so suddenly these days.
      C
These days...
Em   Am   C3
Beware.
Em   Am   C3
Beware.


END:
             Am   Em  G         D              Am  Em
If you can't find love above an endless burning ocean,
G            D            Am   Em
Then I can't be a part of your love.
G          D            Am   Em  C2
Iím gonna swim against your waves.
             Am   Em  G  D
If you can't find love, oh
Am  Em  G  D
             Am   Em  G  D
If you can't find love, oh
Am  Em  G  D  Am

===================================================================
Related for Blueberry Waves tab