Song name
# A B C D E F G H I J K L M N O P Q R S T U V W X Y Z

Wolftron - Defeat Of Starman tab

Tabbed by Middaysilence
Wolftron
"Defeat of Starman"
from the album
Flesh and Fears

Standard Tuning

so this song is mostly piano,
but i have it for guitar.
theres some leads in the
background, too quiet to hear,
so i apologize for not having them.
if you have them, please tell me.
im not 100% sure of this song,
but it sounds kinda close.
i hope it helps,
this is a beautiful song, enjoy.

Intro
D
Gm7
Gm
Eb
D


Verse

    D   Gm7             Gm        Eb                         
Starman tries to be the hero when everyones already 

          D
got their own plans.

    D    Gm7             Gm               Eb   
Starman tries so hard to fight the storm but never does 

                   D
the things he says he can.


             D/F#
What breaks you down?

             C       Bm 
What breaks you down?

            ^^^^
(not sure of this part)




Chorus

      G         Bm    
Wake up and go onto the other side.

      G            Bm
Oh, turn off your backroom light.

            D  C#m   Bm     
No one can see you anymore.


    


Interlude 


Bm
Can you tell me now that fate doesn't see when your 

                            Em
soul shakes back to younger times.

           Eb            D     
Or are you still afraid tonight? 


Then intro/verse for solo



(or are you still afraid tonight?)
|-----------------|
|-10rbp8~~---7~~--|
|-----------------|
|-----------------|
|-----------------|
|-----------------|
    ^^  
bend the string before picking,
let go gradually, then pull off
 


Solo

|--------------------------------------10h12h13~~--14~~~--|
|-------10-10br--8------------------10--------------------|
|-11h12------------9-------9-11-12------------------------|
|----------------------10---------------------------------|
|---------------------------------------------------------|
|---------------------------------------------------------|

end on intro


comments and questions are always welcome.
Tap to rate this tab
 
# A B C D E F G H I J K L M N O P Q R S T U V W X Y Z