Song name
# A B C D E F G H I J K L M N O P Q R S T U V W X Y Z

Wolftron - All That You Need tab

-------------------------------------------------------------------------------
			     All That You Need - Wolftron
-------------------------------------------------------------------------------
Tabbed by: SorryImAwesome.
Email: sorryimawesome@hotmail.com

Tuning: half-step down (Eb Ab Db Gb Bb eb)

**NOTE** ^ - guitar slap.

Chords used in this song:
eb|-4-|-0-|-0-|-2-|-2-|-0-|
Bb|-5-|-7-|-2-|-3-|-2-|-0-|
Gb|-4-|-6-|-1-|-2-|-2-|-1-|
Db|-6-|-7-|-2-|-4-|-4-|-2-|
Ab|-4-|-5-|-0-|-2-|-4-|-2-|
Eb|-x-|-x-|-x-|-x-|-2-|-0-|

INTRO:
eb|-----x-------x-----x-------x-----x---7p4-x-----x-------x-----x---7p4-x-----x-------x-|
Bb|-5---x-----5-x-7---x-----7-x-5---x-------x-7---x-----7-x-5---x-------x-7---x-----7-x-|
Gb|---4-x-----4-x---6-x-----6-x---4-x-------x---6-x-----6-x---4-x-------x---6-x-----6-x-|
Db|-----x---6---x-----x---7---x-----x---6---x-----x---7---x-----x---6---x-----x---7---x-|
Ab|-4---x-4-----x-5---x-5-----x-4---x-4-----x-5---x-5-----x-4---x-4-----x-5---x-5-----x-|
Eb|-----x-------x-----x-------x-----x-------x-----x-------x-----x-------x-----x-------x-|
        ^       ^     ^       ^     ^       ^     ^       ^     ^       ^     ^       ^ 
eb|-----x---------x-----x-----0-x-|
Bb|-2---x-----2h3-x-2---x-----2-x-|
Gb|---1-x-----1---x---1-x-----1-x-|
Db|-----x---2-----x-----x---2---x-|
Ab|-0---x-0-------x-0---x-0-----x-|
Eb|-----x---------x-----x-------x-|
        ^         ^     ^       ^
VERSE (2x):
eb|-----x-------x-----x-------x-|         |-----x---------x-----x-------x-|
Bb|-5---x-----5-x-7---x-----7-x-|         |-2---x-----2h3-x-2---x-----2-x-|
Gb|---4-x-----4-x---6-x-----6-x-|         |---1-x-----1---x---1-x-----1-x-|
Db|-----x---6---x-----x---7---x-|         |-----x---2-----x-----x---2---x-|
Ab|-4---x-4-----x-5---x-5-----x-|         |-0---x-0-------x-0---x-0-----x-|
Eb|-----x-------x-----x-------x-|3x, then |-----x---------x-----x-------x-|
        ^       ^     ^       ^                 ^         ^     ^       ^   
CHORUS (4x):
eb|---2-x-----2-x---0-x-----0-x---0-x---------x---0-x-----0-x-|
Bb|-3-3-x-----3-x---0-x-----0-x---0-x---------x---0-x-----0-x-|
Gb|---2-x-----2-x-2-2-x-----2-x-1-1-x-----1h2-x-1-1-x-----1-x-|
Db|-----x---4---x-----x-------x-----x-----2---x-2---x-------x-|
Ab|-2---x-2-----x-----x---4---x-----x---2-----x-----x---2---x-|
Eb|-----x-------x-2---x-2-----x-0---x-0-------x-0---x-0-----x-|
        ^       ^     ^       ^     ^         ^     ^       ^
INTRO
VERSE
CHORUS

OUTRO (2x):
eb|--------5p4p2~-------2p0~-------------0~-------0~----0~-----|
Bb|-------------------0~----0~-------------0~-------0~----0~---|
Gb|-----2~----------2~--------2~-----1/2~----2\1~-----1~----1~-|
Db|---4~-------------------------------------------------------|
Ab|-2~-----------------------------2~--------------------------|
Eb|---------------2~-------------0~----------------------------|
On the second time, strum an E chord here      ^

************************************

| /   slide up
| \   slide down
| h   hammer-on
| p   pull-off
| ~   vibrato
| +   harmonic
| x   Mute note
| b   Bend
| pb  Pre-bend
| br  Bend release
| pbr Pre-bend release
| brb Bend release bend

************************************
Tap to rate this tab
 
# A B C D E F G H I J K L M N O P Q R S T U V W X Y Z