Song name
# A B C D E F G H I J K L M N O P Q R S T U V W X Y Z

Wolftron - Wait For You tab

-------------------------------------------------------------------------------
    Wait for You - Wolftron
-------------------------------------------------------------------------------
Tabbed by: Alex Luzod
Email: AlexLuzod@aol.com
http://www.youtube.com/watch?v=edYSVvujuNM
 
Tuning: Standard
Capo on 1st Fret
 
Intro
e|---0------------0------------0------------0----------------------------------|
B|-0-0-----0----0-0-----0----0-0-----0----0-0-----0----------------------------|
G|-6-0-----6----6-0-----6----2-2-----2----2-2-----2----------------------------|
D|-6-----6------6-----6------2-----2------2-----2------------------------------|
A|-0---0--------0---0----------------------------------------------------------|
E|---------------------------2---2--------2---2---2----------------------------|
 
 
e|---4------------4------------0------------0----------------------------------|
B|-5-5-----5----5-5-----5----0-0-----0----0-0-----0----------------------------|
G|-6-6-----6----6-6-----6----4-4-----4----4-4-----4----------------------------|
D|-6-----6------6-----6------4-----4------4-----4------------------------------|
A|-4---4--------4---4----------------------------------------------------------|
E|---------------------------4---4------------4--------------------------------|
 
VERSE ONE
For all of my life girl....             I've been waiting for your love
e|---0------------0------------0------------0----------------------------------|
B|-0-0-----0----0-0-----0----0-0-----0----0-0-----0----------------------------|
G|-6-0-----6----6-0-----6----2-2-----2----2-2-----2----------------------------|
D|-6-----6------6-----6------2-----2------2-----2------------------------------|
A|-0---0--------0---0----------------------------------------------------------|
E|---------------------------2---2--------2---2---2----------------------------|
 
 
e|---4------------4------------0------------0----------------------------------|
B|-5-5-----5----5-5-----5----0-0-----0----0-0-----0----------------------------|
G|-6-6-----6----6-6-----6----4-4-----4----4-4-----4----------------------------|
D|-6-----6------6-----6------4-----4------4-----4------------------------------|
A|-4---4--------4---4----------------------------------------------------------|
E|---------------------------4---4------------4--------------------------------|
 
e|---0------------0------------0------------0----------------------------------|
B|-0-0-----0----0-0-----0----0-0-----0----0-0-----0----------------------------|
G|-6-0-----6----6-0-----6----2-2-----2----2-2-----2----------------------------|
D|-6-----6------6-----6------2-----2------2-----2------------------------------|
A|-0---0--------0---0----------------------------------------------------------|
E|---------------------------2---2--------2---2---2----------------------------|
 
 
e|---4------------4------------0------------0----------------------------------|
B|-5-5-----5----5-5-----5----0-0-----0----0-0-----0----------------------------|
G|-6-6-----6----6-6-----6----4-4-----4----4-4-----4----------------------------|
D|-6-----6------6-----6------4-----4------4-----4------------------------------|
A|-4---4--------4---4----------------------------------------------------------|
E|---------------------------4---4------------4--------------------------------|
 
 
CHORUS
Oh! Oh! Oh!   Don't worry love I'll...
e|------------0------------0------------0------------0---0---------------------|
B|-0-0-0----0-0-----0----0-0-----0----0-0-----0----0-0-0-0---------------------|
G|-4-3-2----2-2-----2----2-2-----2----4-4-----4----4-4-4-4---------------------|
D|-4-3-2----2-----2------2-----2------4-----4------4---4-----------------------|
A|------------------------------------2---2--------2---3-----------------------|
E|-4-3-2----2---2--------2---2-------------------------------------------------|
 
 
e|---4------------4------------0------------0----------------------------------|
B|-5-5-----5----5-5-----5----0-0-----0----0-0-----0----------------------------|
G|-6-6-----6----6-6-----6----4-4-----4----4-4-----4----------------------------|
D|-6-----6------6-----6------4-----4------4-----4------------------------------|
A|-4---4--------4---4----------------------------------------------------------|
E|---------------------------4---4------------4--------------------------------|
 
 
e|------------0------------0------------0------------0---0---------------------|
B|-0-0-0----0-0-----0----0-0-----0----0-0-----0----0-0-0-0---------------------|
G|-4-3-2----2-2-----2----2-2-----2----4-4-----4----4-4-4-4---------------------|
D|-4-3-2----2-----2------2-----2------4-----4------4---4-----------------------|
A|------------------------------------2---2--------2---3-----------------------|
E|-4-3-2----2---2--------2---2-------------------------------------------------|
 
 
e|---4------------4------------0------------0----------------------------------|
B|-5-5-----5----5-5-----5----7-7-----7----7-7-----7----------------------------|
G|-6-6-----6----6-6-----6----7-7-----7----7-7-----7----------------------------|
D|-6-----6------6-----6------7-----7------7-----7------------------------------|
A|-4---4--------4---4----------------------------------------------------------|
E|---------------------------7---7--------7---7--------------------------------|
 
INSTRUMENTAL
e|---0------------0------------0------------0----------------------------------|
B|-0-0-----0----0-0-----0----0-0-----0----0-0-----0----------------------------|
G|-6-0-----6----6-0-----6----2-2-----2----2-2-----2----------------------------|
D|-6-----6------6-----6------2-----2------2-----2------------------------------|
A|-0---0--------0---0----------------------------------------------------------|
E|---------------------------2---2--------2---2---2----------------------------|
 
 
e|---4------------4------------0------------0----------------------------------|
B|-5-5-----5----5-5-----5----0-0-----0----0-0-----0----------------------------|
G|-6-6-----6----6-6-----6----4-4-----4----4-4-----4----------------------------|
D|-6-----6------6-----6------4-----4------4-----4------------------------------|
A|-4---4--------4---4----------------------------------------------------------|
E|---------------------------4---4------------4--------------------------------|
 
VERSE TWO
I've been dreaming...                And the way you'll make me feel
e|---0------------0------------0------------0----------------------------------|
B|-0-0-----0----0-0-----0----0-0-----0----0-0-----0----------------------------|
G|-6-0-----6----6-0-----6----2-2-----2----2-2-----2----------------------------|
D|-6-----6------6-----6------2-----2------2-----2------------------------------|
A|-0---0--------0---0----------------------------------------------------------|
E|---------------------------2---2--------2---2---2----------------------------|
 
 
e|---4------------4------------0------------0----------------------------------|
B|-5-5-----5----5-5-----5----0-0-----0----0-0-----0----------------------------|
G|-6-6-----6----6-6-----6----4-4-----4----4-4-----4----------------------------|
D|-6-----6------6-----6------4-----4------4-----4------------------------------|
A|-4---4--------4---4----------------------------------------------------------|
E|---------------------------4---4------------4--------------------------------|
 
 
e|---0------------0------------0------------0----------------------------------|
B|-0-0-----0----0-0-----0----0-0-----0----0-0-----0----------------------------|
G|-6-0-----6----6-0-----6----2-2-----2----2-2-----2----------------------------|
D|-6-----6------6-----6------2-----2------2-----2------------------------------|
A|-0---0--------0---0----------------------------------------------------------|
E|---------------------------2---2--------2---2---2----------------------------|
 
 
e|---4------------4------------0------------0----------------------------------|
B|-5-5-----5----5-5-----5----0-0-----0----0-0-----0----------------------------|
G|-6-6-----6----6-6-----6----4-4-----4----4-4-----4----------------------------|
D|-6-----6------6-----6------4-----4------4-----4------------------------------|
A|-4---4--------4---4----------------------------------------------------------|
E|---------------------------4---4------------4--------------------------------|
 
CHORUS
Oh! Oh! Oh!   Don't worry love I'll...
e|------------0------------0------------0------------0---0---------------------|
B|-0-0-0----0-0-----0----0-0-----0----0-0-----0----0-0-0-0---------------------|
G|-4-3-2----2-2-----2----2-2-----2----4-4-----4----4-4-4-4---------------------|
D|-4-3-2----2-----2------2-----2------4-----4------4---4-----------------------|
A|------------------------------------2---2--------2---3-----------------------|
E|-4-3-2----2---2--------2---2-------------------------------------------------|
 
 
e|---4------------4------------0------------0----------------------------------|
B|-5-5-----5----5-5-----5----0-0-----0----0-0-----0----------------------------|
G|-6-6-----6----6-6-----6----4-4-----4----4-4-----4----------------------------|
D|-6-----6------6-----6------4-----4------4-----4------------------------------|
A|-4---4--------4---4----------------------------------------------------------|
E|---------------------------4---4------------4--------------------------------|
 
 
e|------------0------------0------------0------------0---0---------------------|
B|-0-0-0----0-0-----0----0-0-----0----0-0-----0----0-0-0-0---------------------|
G|-4-3-2----2-2-----2----2-2-----2----4-4-----4----4-4-4-4---------------------|
D|-4-3-2----2-----2------2-----2------4-----4------4---4-----------------------|
A|------------------------------------2---2--------2---3-----------------------|
E|-4-3-2----2---2--------2---2-------------------------------------------------|
 
 
 
e|---4------------4------------0------------0----------------------------------|
B|-5-5-----5----5-5-----5----7-7-----7----7-7-----7----------------------------|
G|-6-6-----6----6-6-----6----7-7-----7----7-7-----7----------------------------|
D|-6-----6------6-----6------7-----7------7-----7------------------------------|
A|-4---4--------4---4----------------------------------------------------------|
E|---------------------------7---7--------7---7--------------------------------|
 
CHANGE UP
I don't know when or where...
e|---0------------0------------0------------0----------------------------------|
B|-0-0-----0----0-0-----0----0-0-----0----0-0-----0----------------------------|
G|-6-6-----6----6-6-----6----4-4-----4----4-4-----4----------------------------|
D|-6-----6------6-----6------4-----4------4-----4------------------------------|
A|-0---0--------0---0----------------------------------------------------------|
E|---------------------------4---4--------4---4--------------------------------|
 
 
e|---0------------0------------0------------0----------------------------------|
B|-7-7-----7----7-7-----7----0-0-----0----0-0-----0----------------------------|
G|-7-7-----7----7-7-----7----6-6-----6----6-6-----6----------------------------|
D|-7-----7------7-----7------6-----6------6-----6------------------------------|
A|-------------------------------0------------0--------------------------------|
E|-7---7--------7---7----------------------------------------------------------|
 
 
e|---4------------4-----------0------------0-----0-----------------------------|
B|-5-5-----5----5-5-----5---0-0-----0----0-0-----0-----------------------------|
G|-6-6-----6----6-6-----6---4-4-----4----4-4-----4-----------------------------|
D|-6-----6------6-----6-----4-----4------4-----4-------------------------------|
A|-4---4--------4---4----------------------------------------------------------|
E|--------------------------4---4--------4---4---------------------------------|
 
 
e|---0------------0-----------0------------0-----------------------------------|
B|-7-7-----7----7-7-----7---0-0-----0----0-0-----0-----------------------------|
G|-7-7-----7----7-7-----7---6-6-----6----5-5-----5-----------------------------|
D|-7-----7------7-----7-----6-----6------6-----6-------------------------------|
A|------------------------------0------------0---------------------------------|
E|-7---7--------7---7----------------------------------------------------------|
 
 
e|---0------------0-----0------------------------------------------------------|
B|-0-0-----0----0-0-----0------------------------------------------------------|
G|-4-4-----4----4-4-----4------------------------------------------------------|
D|-6-----6------6-----6--------------------------------------------------------|
A|-----------------------------------------------------------------------------|
E|-0---0--------0---0----------------------------------------------------------|
 
CHORUS
Oh! Oh! Oh!   Don't worry love I'll...
e|------------0------------0------------0------------0---0---------------------|
B|-0-0-0----0-0-----0----0-0-----0----0-0-----0----0-0-0-0---------------------|
G|-4-3-2----2-2-----2----2-2-----2----4-4-----4----4-4-4-4---------------------|
D|-4-3-2----2-----2------2-----2------4-----4------4---4-----------------------|
A|------------------------------------2---2--------2---3-----------------------|
E|-4-3-2----2---2--------2---2-------------------------------------------------|
 
 
e|---4------------4------------0------------0----------------------------------|
B|-5-5-----5----5-5-----5----0-0-----0----0-0-----0----------------------------|
G|-6-6-----6----6-6-----6----4-4-----4----4-4-----4----------------------------|
D|-6-----6------6-----6------4-----4------4-----4------------------------------|
A|-4---4--------4---4----------------------------------------------------------|
E|---------------------------4---4------------4--------------------------------|
 
 
e|------------0------------0------------0------------0---0---------------------|
B|-0-0-0----0-0-----0----0-0-----0----0-0-----0----0-0-0-0---------------------|
G|-4-3-2----2-2-----2----2-2-----2----4-4-----4----4-4-4-4---------------------|
D|-4-3-2----2-----2------2-----2------4-----4------4---4-----------------------|
A|------------------------------------2---2--------2---3-----------------------|
E|-4-3-2----2---2--------2---2-------------------------------------------------|
 
 
e|---4------------4------------0------------0----------0----------|
B|-5-5-----5----5-5-----5----7-7----7-----7-7-----7----0----------|
G|-6-6-----6----6-6-----6--- 7-7----7-----7-7-----7----6----------|
D|-6-----6------6-----6------7----7-------7-----7------6----------|
A|-4---4--------4---4----------------------------------0----------|
E|---------------------------7---7--------7---7--------0----------|
                                                       Strum
Tap to rate this tab
# A B C D E F G H I J K L M N O P Q R S T U V W X Y Z