Song name
# A B C D E F G H I J K L M N O P Q R S T U V W X Y Z

Wolves At The Gate - Heralds tab

D|---------------14----------------------14-------|
A|---14-13----16----16-------14-13----16----16----|
F|15-------15----------15-15-------15----------13-|
C|------------------------------------------------|
G|------------------------------------------------|
C|------------------------------------------------|

D|------------------------------------------------|
A|---16-14-------------------16-14----------------|
F|13-------13-15/17\15-13-13-------13-------13-15-|
C|------------------------------------13/15-------|
G|------------------------------------------------|
C|------------------------------------------------|

/ = slide up
\ = slide down
And it just loops like that... Its hard to play as fast and with as much finesse as 
their guitarist
Tap to rate this tab
# A B C D E F G H I J K L M N O P Q R S T U V W X Y Z