Song name
# A B C D E F G H I J K L M N O P Q R S T U V W X Y Z

Women - Eyesore tab

Eyesore
by Women from the album Public Strain

Tab by ZorakIsStained
soniclife19@gmail.com

This one is a ton of fun to play. As always there's a lot going on here, so I don't
think I have everything right. I've taken some rhythmic liberties but it's not far off.
I've broken the song into parts so it's mostly up to the reader to arrange them correctly.
Enjoy.


*Part A

Guitar 1

e|7-----7-9-----9-|----------------|
B|----------------|----------------|
G|7-----7-9-----9-|----7-9-----7-9-| Repeated
D|----------------|--6-------6-----|
A|----------------|----------------|
E|--7-7-----7-7---|0-------0-------|
                   (unsure about these notes)
Guitar 2
(Enters a few bars after Guitar 1)


e|7-----7-9-----9-|------7---------|
B|----------------|----------------|
G|7-----7-9-----9-|----7-------7-9-| Repeated
D|----------------|7-6-----6-7-----|
A|----------------|----------------|
E|--7-7-----7-7---|----------------|

*Part B

Guitar 1

e|--9---9---------|    |----------------|----------------|
B|----9---9-7-----|    |----------------|----------------|
G|--------------9-| X2 |--9---9---9---9-|--7---7---7---7-|
D|----------------|    |----6-------6---|----4-------4---|
A|----------------|    |----------------|----------------|
E|----------------|    |0-------0-------|0-------0-------|

Guitar 2

e|----17----17--17|    |----16----16--16|----21----21--21|
B|----17----17--17|    |----17----17--17|----15----15--15|
G|----14----14--14| X2 |----------------|----------------|
D|----------------|    |----14----14--14|----14----14--14|
A|----------------|    |----------------|----------------|
E|----------------|    |----------------|----------------|
                                           This chord fits but
                                           there's probably a 
                                           better one to use here

Guitar 1

e|----------------|----------------|----------------|--------------2-|
B|----------------|----------------|7---------------|------------1---|
G|----14----18----|----14------12--|--6---4---6-4---|----------2-----|
D|--11--11----14--|--11--11--9---9-|----7---------7-|4-------0-------|
A|--------------16|----------------|----------------|(0)-------------|
E|----------------|----------------|----------------|----------------|
                                           unsure about       2nd time
                                           these notes          only
Guitar 2

e|----------------|    |----------------|--------------2-|
B|----19----19--19|    |19--------------|------------1---|
G|----18----18--18| X2 |--18--16----16--|----------2-----|
D|----19----19--19|    |----19----19--19|--------0-------|
A|----------------|    |----------------|----------------|
E|----------------|    |----------------|17--------------|
                                      Let ring    2nd time
                                                    only
*Part C

Both Guitars

e|----------------|----------------|
B|----3-------3---|----5-------5---|
G|----------------|----------------| X2
D|--3---3---3---3-|--5---5---5---5-|
A|1-------1-------|3-------3-------|
E|----------------|----------------|
(Or one guitar plays straight Bar chords)



Guitar 1

e|----------------|----------------|20--------------|22--------------|
B|----15------15--|17------18------|20--------------|22--------------|
G|----------------|----------------|----------------|----------------|
D|--15--15--15--15|17------19------|20--------------|22--------------|
A|13------13------|15------17------|----------------|----------------|
E|----------------|----------------|----------------|----------5-6-8-|
                                                  Let ring

Guitar 2

e|----------------|----------------|----------------|----------------|
B|----3-------3---|5-------6-------|8---------------|10--------------|
G|----------------|----------------|----------------|----------------|
D|--3---3---3---3-|5-------7-------|8---------------|10--------------|
A|1-------1-------|3-------5-------|6---------------|8---------------|
E|----------------|----------------|----------------|----------5-6-8-|



*Part D

Guitar 1 (spacing change for clarity)

e| - - - - 10- - - - - - - 10- - - | - - - - 10- - - - - - - 10- - - |
B| - - - - - - - - - - - - - - - - | - - - - - - - - - - - - - - - - |
G| - - 10- - - - - - - 10- - - - - | - - 10- - - - - - - 10- - - - - |
D| - - - - - - - - - - - - - - - - | 8 - - - - - 8 - 7 - - - - - 7 - |
A| 10- - - - - 10- 8 - - - - - 8 - | - - - - - - - - - - - - - - - - |
E| - - - - - - - - - - - - - - - - | - - - - - - - - - - - - - - - - |

Guitar 2 (spacing change for clarity)

e| - - - - 10- - - - - - - 10- - - | - - - - 10- - - - - - - 10- - - |
B| - - - - - - - - - - - - - - - - | - - - - - - - - - - - - - - - - |
G| - - 10- - - - - - - 10- - - - - | - - 10- - - - - - - 10- - - - - |
D| - - - - - - - - - - - - - - - - | - - - - - - - - - - - - - - - - |
A| 10- - - - - 10- 8 - - - - - 8 - | - - - - - - - - - - - - - - - - |
E| - - - - - - - - - - - - - - - - | 10- - - - - 10- 8 - - - - - 8 - |

Guitar 1                        

e|20--------------|22--------------|
B|20--------------|22--------------|
G|----------------|----------------|
D|20--------------|22--------------|
A|----------------|----------------|
E|----------------|----------5-6-8-|

Guitar 2

e|----------------|----------------|
B|8---------------|10--------------|
G|----------------|----------------|
D|8---------------|10--------------|
A|6---------------|8---------------|
E|----------------|----------5-6-8-|




Both Guitars

e| - - - - 10- - - - - - - 10- - - | - - - - 10- - - - - - - 10- - - |
B| - - - - - - - - - - - - - - - - | - - - - - - - - - - - - - - - - |
G| - - 10- - - - - - - 10- - - - - | - - 10- - - - - - - 10- - - - - |
D| - - - - - - - - - - - - - - - - | 8 - - - - - 8 - 7 - - - - - 7 - |
A| 10- - - - - 10- 8 - - - - - 8 - | - - - - - - - - - - - - - - - - |
E| - - - - - - - - - - - - - - - - | - - - - - - - - - - - - - - - - |


e|----------------|----------------|
B|----------------|----------------|
G|----------------|----------------|
D|----------------|----------------|
A|6-5---------5---|----------------|
E|------6-8-------|5---------5-6-8-|



Part E

Both Guitars

e| - - - - 10- - - - - - - 10- - - | - - - - 10- - - - - - - 10- - - |
B| - - - - - - - - - - - - - - - - | - - - - - - - - - - - - - - - - |
G| - - 10- - - - - - - 10- - - - - | - - 10- - - - - - - 10- - - - - |
D| - - - - - - - - - - - - - - - - | - - - - - - - - - - - - - - - - |
A| 10- - - - - 10- 8 - - - - - 8 - | - - - - - - - - - - - - - - - - |
E| - - - - - - - - - - - - - - - - |10 - - - - -10 - 8 - - - - - 8 - |


e| - - - - 10- - - - - - - 10- - - | - - - - 10- - - - - - - 10- - - |
B| - - - - - - - - - - - - - - - - | - - - - - - - - - - - - - - - - |
G| - - 10- - - - - - - 10- - - - - | - - 10- - - - - - - 10- - - - - |
D| - - - - - - - - - - - - - - - - | - - - - - - - - - - - - - - - - |
A| - - - - - - - - - - - - - - - - | 10- - - - - 10- 8 - - - - - 8 - |
E| 10- - - - - 10- 8 - - - - - 8 - | - - - - - - - - - - - - - - - - |


e| - - - - 10- - - - - - - 10- - - | - - - - 10- - - - - - - 10- - - |
B| - - - - - - - - - - - - - - - - | - - - - - - - - - - - - - - - - |
G| - - 10- - - - - - - 10- - - - - | - - 10- - - - - - - 10- - - - - |
D| 8 - - - - - 8 - 7 - - - - - 7 - | - - - - - - - - - - - - - - - - |
A| - - - - - - - - - - - - - - - - | 7 - - - - - 7 - - - - - - - - - |
E| - - - - - - - - - - - - - - - - | - - - - - - - - 10- - - - - 10- |

Repeat part E then


e| - - - - 10- - - - - - - - - - - |
B| - - - - - - - - - - - - - - - - |
G| - - 10- - - - - - - - - - - - - |
D| - - - - - - - - - - - - - - - - |
A| - - - - - - - - - - - - - - - - | 
E| 6 - - - - - 6 - 7 - - - - - - - |



*End

After the second time through Part D Guitar 1 just repeats the six 
bar line of Part E until the end while Guitar 2 plays Bar chords:

Guitar 2

F (8th fret) A# (6th fret) Gm (10th fret) Dm (5th fret)

occasionally switching to 

F (8th fret) A# (6th fret) X2   C (8th fret)

That's it
Tap to rate this tab
 
# A B C D E F G H I J K L M N O P Q R S T U V W X Y Z