Song name
# A B C D E F G H I J K L M N O P Q R S T U V W X Y Z

Won Ton Soup - At My Best tab

Help us improve GuitareTab! Take a short survey!
    Won ton soup - at my best
    Standard tuning

  main riff
E|----------------------------------------------------------
B|----------------------------------------------------------
G|----------------------------------------------------------
D|---------------------------------------------------------- repeat 2x
A|-7------7-----7--3------5------5--------------------------
E|---5-5----5-5------1-1----3-3-----------------------------
    verse
E|----------------------------------------------------------
B|----------------------------------------------------------
G|----------------------------------------------------------
D|7----3----5-----------------------------------------------
A|7(8x)3(3x)5(5x)-------------------------------------------
E|5----1----3----------------------------------------------- 
    Chorus
E|----------------------------------------------------------
B|----------------------------------------------------------
G|--------5-5-5---------------------------------------------
D|----5-5-3-3-3-3-3-----------------------------------------
A|5-5-3-3-------1-1-----------------------------------------
E|3-3------------------------------------------------------- 
     interlude
E|----------------------------------------------------------
B|----------------------------------------------------------
G|----------------------------------------------------------
D|7-7-5-7-7-5-7-7-5-3---------------------------------------
A|7-7-5-7-7-5-7-7-5-3---------------------------------------
E|5-5-3-5-5-3-5-5-3-1---------------------------------------
Related for At My Best tab