Guitaretab - guitar tabs
Song name
# A B C D E F G H I J K L M N O P Q R S T U V W X Y Z

Won Ton Soup - Caterpillar To Butterfly tab

 Won ton soup - caterpillar to butterfly
 This is Mr man and i just gotta say that won ton soup is the raddest band in the world.
If you want to contact me for any reason email me at W0n t0n s0up@aol.com
Later.

Intro/verse
E|----------------------------------------------------------
B|----------------------------------------------------------
G|----------------------------------------------------------
D|----------------------------------------------------------
A|----1-1-3-5-5-(2x)-------1-1-3-5-5-(2x)-----1-1-3-5-5-(2x)
E|3-3------------------0-0----------------1-1---------------
[ Tab from: http://www.guitaretab.com/w/won-ton-soup/30892.html ]
E|----------------------------------------------------------
B|----------------------------------------------------------
G|----------------------------------------------------------
D|----------------------------------------------------------
A|----------------------------------------------------------
E|-3-(12x)--------------------------------------------------

Chorus  Palm mute with distorion
E|----------------------------------------------------------
B|----------------------------------------------------------
G|----4---4---4-----7--7--7---------------------------------
D|----4---4---4-----7--7--7-----5--5--5--2------4-----------
A|2-2---2---2---5-5---5--5------5--5--5--2-(3x)-4-----------
E|--------------------------3-3--3---3---0------2-----------
  Interlude
E|----7-7-7-8-8-8-9-9-9-------------------------------------
B|8-8--------------------8--(12x)---------------------------
G|----------------------------------------------------------
D|----------------------------------------------------------
A|----------------------------------------------------------
E|----------------------------------------------------------
Related for Caterpillar To Butterfly tab
Advertisement will be closed in 10 seconds