Guitaretab - guitar tabs
Song name
# A B C D E F G H I J K L M N O P Q R S T U V W X Y Z

Won Ton Soup - Everyone Will Know tab

Over-atid - Everyone will know
  
The guitarist and former bassist from Won ton soup is in this band and it 
is the best we've written. This band is called Over-atid. HUGO is a douche!!!
  
Intro/Verse
E|----------------------------------------------------------
B|----------------------------------------------------------
G|----------------------------------------------------------
D|--0---0-2-0-----------------------------------------------
A|2---2-------2-2-0---0---0-2-----2---0---0-2-0-------------
E|------------------3---3-----3-3---5---5-------5-----------
[ Tab from: http://www.guitaretab.com/w/won-ton-soup/32747.html ]
   Last part of the first thingy
E|----------------------------------------------------------
B|----------------------------------------------------------
G|----------------------------------------------------------
D|--0-4---0-4-----------------------------------------------
A|5-----4-----4--------------------------------------------
E|----------------------------------------------------------
  Chorus
E|----------------------------------------------------------
B|----------------------------------------------------------
G|----------------------------------------------------------
D|0------4-------0------4--------0------4-------0----0------Those last 2
A|2-(3x)-2-(4x)0---------------2----------------5(4x)4(4x)--chords are 
E|---------------3-(3x)-3-(4x)---5-(3x)-5-(4x)--------------played kinda fast
Related for Everyone Will Know tab
Advertisement will be closed in 10 seconds