Guitaretab - guitar tabs
Song name
# A B C D E F G H I J K L M N O P Q R S T U V W X Y Z

Wonder Girls - Nobody Acoustic tab

Tune a half-step down.


| ---------------- | ------3--------- | 
| ------3-------0- | --0-------0----- | 
| ----0-----0----- | ----5---------5- | 
| --4---4-----x--- | ------5-----x--- | 
| ------------x--- | 0-----------x--- | 
| 0-----------x--- | ------------x--- | 
             tap(?)             tap

[ Tab from: http://www.guitaretab.com/w/wonder-girls/118540.html ]
| -----~7---5----- | ------2--------- | 
| ----5~5---5---5- | ------3---3---0- | 
| --5-----------5- | ----0-----4---0- | 
| 0-----0-----x--- | --0---------x--- | 
| ------------x--- | ------------x--- | 
| ------------x--- | 3-----------x--- | 
      slide


| ----2-3--------- | ---------------- |
| ----3-3-------0- | ----0-1-------0- |
| --0-------0---0- | ----2-2-------0- |
| ------------x--- | --2-------2-x--- |
| 3-----3-----x--- | ------------x--- |
| ------------x--- | 2-----2-----x--- |


| ---------------- | ---------------- | 
| ------3-------3- | --7---10------10 | 
| ----2---------2- | --5---8-------8- | 
| --1-------1-x-1- | --7---10--10x-10 | 
| 2-----2-----x-2- | 6-----9-----x--- | 
| ------------x--- | ------------x--- | 


http://wondergirls.jype.com/


Related for Nobody Acoustic tab
Advertisement will be closed in 10 seconds