Song name
# A B C D E F G H I J K L M N O P Q R S T U V W X Y Z

Wonder Girls - Nobody tab

E||-------|-------|-------|-------|-------|-------|-------|-------|
B||-------|-------|-------|-------|-------|-------|-------|-------|
G||-------|-------|-------|-------|-------|-------|-------|-------|
D||-------|-------|-------|-------|-------|-------|-------|-------|
A||-------|-------|-------|-------|-------|-------|-------|-------|
E||-------|-------|-------|-------|-------|-------|-------|-------|


  E  E  E  E  E  E  E  E     Q    H        E  E     E  E  E  E  E  E  E  E   
--6--6--6--6--6--6--2-----|--7-------------------|--------------------------|
--------------------------|----------------7--7--|--9--9--9--9--9--9--7-----|
--------------------------|----------------------|--------------------------|
--------------------------|----------------------|--------------------------|
--------------------------|----------------------|--------------------------|
--------------------------|----------------------|--------------------------|


  Q    H        E  S S    E  E  E  E  E  E  E  E     E  E  E  E  Q    Q     
--6--------------------|--------------------------|------------------------|
-------------------7-7-|--7--7--7--7--7-----4--4--|--7--7--7--7--7---------|
-----------------------|--------------------------|------------------------|
-----------------------|--------------------------|------------------------|
-----------------------|--------------------------|------------------------|
-----------------------|--------------------------|------------------------|


  E  E  E  E  E  Q    E      E   E   E   E   Q    Q     
--6--6--6--6--6--6-------|-----------------------------|
-------------------------|--11--11--11--11--11---------|
-------------------------|-----------------------------|
-------------------------|-----------------------------|
-------------------------|-----------------------------|
-------------------------|-----------------------------|


  E  E  E  E  E  E  E  S S    E  E  E  E  E  E  E  S S  
---------------------------|---------------------------|
--7-----7--7-----4-----4-4-|--7-----7--7-----4-----4-4-|
---------------------------|---------------------------|
---------------------------|---------------------------|
---------------------------|---------------------------|
---------------------------|---------------------------|


  E  E  E  E  E  E  E  S S    E  E  E  E  E  Q    S S  
---------------------------|--------------------------|
--6-----6--6-----2-----2-2-|--6-----6--6-----7----2-2-|
---------------------------|--------------------------|
---------------------------|--------------------------|
---------------------------|--------------------------|
---------------------------|--------------------------|


  E  E  E  E  E  E  E  S S    E  E  E  E  E  E  E  S S  
---------------------------|---------------------------|
--7-----7--7-----4-----4-4-|--7-----7--7-----4-----4-4-|
---------------------------|---------------------------|
---------------------------|---------------------------|
---------------------------|---------------------------|
---------------------------|---------------------------|


   E   E   E   E   E   E   E   E      Q.     H        E   
----------------------------------|----------------------|
--11--11--11--11--11--11--11--11--|--11------------------|
----------------------------------|----------------------|
----------------------------------|----------------------|
----------------------------------|----------------------|
----------------------------------|----------------------|


  E  E  E  E  E  E  E  E     Q    Q    Q    Q       E  E  E  E  E  E  E  E   
-----6--6--4--2--2--1--1--|----------------------|--------------------------|
--------------------------|--4-------------------|-----9--9--7--6--6--4--4--|
--------------------------|----------------------|--------------------------|
--------------------------|----------------------|--------------------------|
--------------------------|----------------------|--------------------------|
--------------------------|----------------------|--------------------------|


  Q    Q    Q    E  S S    Q    E  Q    Q    E     Q    E  Q    Q    E   
------------------------|-----------------------|-----------------------|
--2-----------------2-2-|--4----2--4----7----2--|--4----2--4----7-------|
------------------------|-----------------------|-----------------------|
------------------------|-----------------------|-----------------------|
------------------------|-----------------------|-----------------------|
------------------------|-----------------------|-----------------------|


   E   E   E   E   E   E   E   E      H        H         
----------------------------------|---------------------|
--11--11--11--11--11--11--11--11--|--11-----------------|
----------------------------------|---------------------|
----------------------------------|---------------------|
----------------------------------|---------------------|
----------------------------------|---------------------|


  E  E  E  E  E  E  E  E     Q    H        E  E     E  E  E  E  E  E  E  E   
--6--6--6--6--6--6--2-----|--7-------------------|--------------------------|
--------------------------|----------------7--7--|--9--9--9--9--9--9--7-----|
--------------------------|----------------------|--------------------------|
--------------------------|----------------------|--------------------------|
--------------------------|----------------------|--------------------------|
--------------------------|----------------------|--------------------------|


  Q    H        E  S S    E  E  E  E  E  E  E  E     E  E  E  E  Q    Q     
--6--------------------|--------------------------|------------------------|
-------------------7-7-|--7--7--7--7--7-----4--4--|--7--7--7--7--7---------|
-----------------------|--------------------------|------------------------|
-----------------------|--------------------------|------------------------|
-----------------------|--------------------------|------------------------|
-----------------------|--------------------------|------------------------|


  E  E  E  E  E  Q    E      E   E   E   E   Q    Q     
--6--6--6--6--6--6-------|-----------------------------|
-------------------------|--11--11--11--11--11---------|
-------------------------|-----------------------------|
-------------------------|-----------------------------|
-------------------------|-----------------------------|
-------------------------|-----------------------------|


  E  E  E  E  E  E  E  E     Q    H        E  E     E  E  E  E  E  E  E  E   
--6--6--6--6--6--6--2-----|--7-------------------|--------------------------|
--------------------------|----------------7--7--|--9--9--9--9--9--9--7-----|
--------------------------|----------------------|--------------------------|
--------------------------|----------------------|--------------------------|
--------------------------|----------------------|--------------------------|
--------------------------|----------------------|--------------------------|


  Q    H        E  S S    E  E  E  E  E  E  E  E     E  E  E  E  Q    Q     
--6--------------------|--------------------------|------------------------|
-------------------7-7-|--7--7--7--7--7-----4--4--|--7--7--7--7--7---------|
-----------------------|--------------------------|------------------------|
-----------------------|--------------------------|------------------------|
-----------------------|--------------------------|------------------------|
-----------------------|--------------------------|------------------------|


  E  E  E  E  E  Q    E      E   E   E   E   Q    Q     
--6--6--6--6--6--6-------|-----------------------------|
-------------------------|--11--11--11--11--11---------|
-------------------------|-----------------------------|
-------------------------|-----------------------------|
-------------------------|-----------------------------|
-------------------------|-----------------------------|


  E  E  E  E  E  E  E  S S    E  E  E  E  E  E  E  S S  
---------------------------|---------------------------|
--7-----7--7-----4-----4-4-|--7-----7--7-----4-----4-4-|
---------------------------|---------------------------|
---------------------------|---------------------------|
---------------------------|---------------------------|
---------------------------|---------------------------|


  E  E  E  E  E  E  E  S S    E  E  E  E  E  Q    S S  
---------------------------|--------------------------|
--6-----6--6-----2-----2-2-|--6-----6--6-----7----2-2-|
---------------------------|--------------------------|
---------------------------|--------------------------|
---------------------------|--------------------------|
---------------------------|--------------------------|


  E  E  E  E  E  E  E  S S    E  E  E  E  E  E  E  S S  
---------------------------|---------------------------|
--7-----7--7-----4-----4-4-|--7-----7--7-----4-----4-4-|
---------------------------|---------------------------|
---------------------------|---------------------------|
---------------------------|---------------------------|
---------------------------|---------------------------|


   E   E   E   E   E   E   E   E      Q.     H        E   
----------------------------------|----------------------|
--11--11--11--11--11--11--11--11--|--11------------------|
----------------------------------|----------------------|
----------------------------------|----------------------|
----------------------------------|----------------------|
----------------------------------|----------------------|


  E  E  E  E  E  E  E  E     Q    Q    Q    Q       E  E  E  E  E  E  E  E   
-----6--6--4--2--2--1--1--|----------------------|--------------------------|
--------------------------|--4-------------------|-----9--9--7--6--6--4--4--|
--------------------------|----------------------|--------------------------|
--------------------------|----------------------|--------------------------|
--------------------------|----------------------|--------------------------|
--------------------------|----------------------|--------------------------|


  Q    Q    Q    E  S S    Q    E  Q    Q    E     Q    E  Q    Q    E   
------------------------|-----------------------|-----------------------|
--2-----------------2-2-|--4----2--4----7----2--|--4----2--4----7-------|
------------------------|-----------------------|-----------------------|
------------------------|-----------------------|-----------------------|
------------------------|-----------------------|-----------------------|
------------------------|-----------------------|-----------------------|


                                                           °£ΑΦ              
   E   E   E   E   E   E   E   E      H        H           W                 
----------------------------------|---------------------|-------------------|
--11--11--11--11--11--11--11--11--|--11-----------------|-------------------|
----------------------------------|---------------------|-------------------|
----------------------------------|---------------------|-------------------|
----------------------------------|---------------------|-------------------|
----------------------------------|---------------------|-------------------|


-----------|-----------|-----------|-----------|-----------|-----------|
-----------|-----------|-----------|-----------|-----------|-----------|
-----------|-----------|-----------|-----------|-----------|-----------|
-----------|-----------|-----------|-----------|-----------|-----------|
-----------|-----------|-----------|-----------|-----------|-----------|
-----------|-----------|-----------|-----------|-----------|-----------|


-----------|-----------|-----------|-----------|-----------|-----------|
-----------|-----------|-----------|-----------|-----------|-----------|
-----------|-----------|-----------|-----------|-----------|-----------|
-----------|-----------|-----------|-----------|-----------|-----------|
-----------|-----------|-----------|-----------|-----------|-----------|
-----------|-----------|-----------|-----------|-----------|-----------|


                                      E  E  E  E  E  E  E  E   
-----------|-----------|-----------|--6--6--6--6--6--6--2-----|
-----------|-----------|-----------|--------------------------|
-----------|-----------|-----------|--------------------------|
-----------|-----------|-----------|--------------------------|
-----------|-----------|-----------|--------------------------|
-----------|-----------|-----------|--------------------------|


  Q    H        E  E     E  E  E  E  E  E  E  E     Q    H        E  S S  
--7-------------------|--------------------------|--6--------------------|
----------------7--7--|--9--9--9--9--9--9--7-----|-------------------7-7-|
----------------------|--------------------------|-----------------------|
----------------------|--------------------------|-----------------------|
----------------------|--------------------------|-----------------------|
----------------------|--------------------------|-----------------------|


  E  E  E  E  E  E  E  E     E  E  E  E  Q    Q       E  E  E  E  E  Q    E   
--------------------------|------------------------|--6--6--6--6--6--6-------|
--7--7--7--7--7-----4--4--|--7--7--7--7--7---------|-------------------------|
--------------------------|------------------------|-------------------------|
--------------------------|------------------------|-------------------------|
--------------------------|------------------------|-------------------------|
--------------------------|------------------------|-------------------------|


   E   E   E   E   Q    Q                               Q    H        E  S S  
-----------------------------|-------|-------|-------|-----------------------|
--11--11--11--11--11---------|-------|-------|-------|-------------------7-7-|
-----------------------------|-------|-------|-------|-----------------------|
-----------------------------|-------|-------|-------|-----------------------|
-----------------------------|-------|-------|-------|-----------------------|
-----------------------------|-------|-------|-------|-----------------------|


  E  E  E  E  E  E  E  E     E  E  E  E  Q    Q       E  E  E  E  E  E  E  E   
--------------------------|------------------------|--6--6--6--6--6--6--6--6--|
--7--7--7--7--7-----4--4--|--7--7--7--7--7---------|--------------------------|
--------------------------|------------------------|--------------------------|
--------------------------|------------------------|--------------------------|
--------------------------|------------------------|--------------------------|
--------------------------|------------------------|--------------------------|


  W                   W                   E  E  E  E  E  E  E  E   
--6----------------|--7----------------|--6--6--6--6--6--6--2-----|
-------------------|-------------------|--------------------------|
-------------------|-------------------|--------------------------|
-------------------|-------------------|--------------------------|
-------------------|-------------------|--------------------------|
-------------------|-------------------|--------------------------|


  Q    H        E  E     E  E  E  E  E  E  E  E     Q    H        E  S S  
--7-------------------|--------------------------|--6--------------------|
----------------7--7--|--9--9--9--9--9--9--7-----|-------------------7-7-|
----------------------|--------------------------|-----------------------|
----------------------|--------------------------|-----------------------|
----------------------|--------------------------|-----------------------|
----------------------|--------------------------|-----------------------|


  E  E  E  E  E  E  E  E     E  E  E  E  Q    Q       E  E  E  E  E  Q    E   
--------------------------|------------------------|--6--6--6--6--6--6-------|
--7--7--7--7--7-----4--4--|--7--7--7--7--7---------|-------------------------|
--------------------------|------------------------|-------------------------|
--------------------------|------------------------|-------------------------|
--------------------------|------------------------|-------------------------|
--------------------------|------------------------|-------------------------|


   E   E   E   E   Q    Q       E  E  E  E  E  E  E  E     Q    H        E  E   
-----------------------------|--6--6--6--6--6--6--2-----|--7-------------------|
--11--11--11--11--11---------|--------------------------|----------------7--7--|
-----------------------------|--------------------------|----------------------|
-----------------------------|--------------------------|----------------------|
-----------------------------|--------------------------|----------------------|
-----------------------------|--------------------------|----------------------|


  E  E  E  E  E  E  E  E     Q    H        E  S S    E  E  E  E  E  E  E  E   
--------------------------|--6--------------------|--------------------------|
--9--9--9--9--9--9--7-----|-------------------7-7-|--7--7--7--7--7-----4--4--|
--------------------------|-----------------------|--------------------------|
--------------------------|-----------------------|--------------------------|
--------------------------|-----------------------|--------------------------|
--------------------------|-----------------------|--------------------------|


  E  E  E  E  Q    Q       E  E  E  E  E  Q    E   
------------------------|--6--6--6--6--6--6-------|
--7--7--7--7--7---------|-------------------------|
------------------------|-------------------------|
------------------------|-------------------------|
------------------------|-------------------------|
------------------------|-------------------------|


   E   E   E   E   Q    Q              
-----------------------------|-------||
--11--11--11--11--11---------|-------||
-----------------------------|-------||
-----------------------------|-------||
-----------------------------|-------||
-----------------------------|-------||




Duration Legend
---------------
W - whole
H - half
Q - quarter
E - 8th
S - 16th
T - 32nd
X - 64th
. - note dotted
|-n-|  - n-tuplets


Tablature Legend
----------------
L - tied note
x - dead note
g - grace note
(n) - ghost note
> - accentuded note
NH - natural harmonic
AH - artificial harmonic
TH - tapped harmonic
SH - semi harmonic
PH - pitch harmonic
h - hammer on
p - pull off
b - bend
br - bendRelease
pb - preBend
pbr - preBendRelease
brb - bendReleaseBend
\n/ - tremolo bar dip
\n - tremolo bar dive
-/n - tremolo bar Release up
/n\ - tremolo bar inverted dip
/n - tremolo bar return
-\n - tremolo bar Release down
S - shift slide
s - legato slide
/ -  slide into from below or out of upwards
\ -  slide into from above or out of downwards
~ - vibrato
W - wide vibrato
tr - trill
TP - tremolo picking
T - tapping
S - slap
P - pop
< - fade in
^ - brush up
v - brush down
Tap to rate this tab
 
# A B C D E F G H I J K L M N O P Q R S T U V W X Y Z