Guitaretab - guitar tabs
Song name
# A B C D E F G H I J K L M N O P Q R S T U V W X Y Z

Wonder Stevie - As tab

Band-Outbreak
Song-A.S.
Album-Failure
Label-Bridge Nine Records
Standard Tuning

www.outbreakhc.com

.-palm mute
~-let ring

riff 1
---------------------------------------------------------|
---------------------------------------------------------|
-------------------------------------5-------------------|
-----4-------4-------4-------4-------5-------5-4-4-4-2-4-|
-----4-------4-------4-------4-3-3-3-3-------5-4-4-4-2-4-|
-2-2-2-2-2-2-2-2-2-2-2-2-2-2-2---------3-3-3-3-2-2-2-0-2-|
 . .   . . .   . . .   . . .   . . .   . . .
[ Tab from: http://www.guitaretab.com/w/wonder-stevie/21046.html ]
riff 2
---------------------------------------------------------|
---------------------------------------------------------|
-------5-----------------------5~------------------------|
-4-----5-x4-5----4-4-4-2-4--x2-5~------------------------|
-4-x16-3----5-x4-4-4-4-2-4-----3~------------------------|
-2----------3----2-2-2-0-2-------------------------------|

riff 3
---------------------------------------------------------|
---------------------------------------------------------|
-------5-5-5---------------------------------------------|
-4-4-4-5-5-5-5-5-4-2-------------------------------------|
-4-4-4-3-3-3-5-5-4-2-------------------------------------|
-2-2-2-------3-3-2-0-------------------------------------|

riff 4
---------------------------------------------------------|
---------------------------------------------------------|
-------5~------------------------------------------------|
-4-----5~--x2--------------------------------------------|
-4-x16-3~------------------------------------------------|
-2-------------------------------------------------------|

then go back into riff 2 twice.  end song.
awesome band, simple song, my aim is xchasegrillox if you have any questions.
Related for As tab
Advertisement will be closed in 10 seconds