Song name
# A B C D E F G H I J K L M N O P Q R S T U V W X Y Z

Wonderheim - Dreams And Nightmares tab

Band: Wonderheim
Song: Dreams and Nightmares
Segment: All Guitar Parts
Tab Writer: Matt Morton (Guitarist for Wonderheim)

www.wonderheim.com

Strum a Muted C

Then strum these chords through end of verse:

   C   G  Fmaj7
E--0---3--X----|
B--1---3--1----|
G--0---0--2----|
D--2---0--2----|
A--3---2--X----|
E--X---3--1----|

Then strum these chords 3 times:

   C   G  Fmaj7Dmin
E--0---3--X----1--|
B--1---3--1----3--|
G--0---0--2----2--|
D--2---0--2----0--|
A--3---2--X----X--|
E--X---3--1----X--|

Then strum these chords 1x:

   C   G  Fmaj7muted
E--0---3--X----X--|
B--1---3--1----X--|
G--0---0--2----X--|
D--2---0--2----X--|
A--3---2--X----X--|
E--X---3--1----X--|

Sweep picking C chord.
d is referencing a downstroke/pick
u is referencing an upstroke/pick


Repeat over and over and over...



    d  d d d u  d  u u u u
-E---------8-10-10-8--------|
-B-------8-----------8------|
-G-----9---------------8----|
-D--10-------------------10-|
-A--------------------------|
-E--------------------------|



:Electric guitar part:


Strum these chords 2x (vertical bars inserted to state
these are not only strummed once):
   C5    D5    E5    F5     A5
E--X--|--X--|--X--|--X---|--X---|
B--X--|--X--|--X--|--10--|--X---|
G--5--|--7--|--9--|--10--|--14--|
D--5--|--7--|--9--|--10--|--14--|
A--3--|--5--|--7--|--8---|--12--|
E--X--|--X--|--X--|--X---|--X---|
Tap to rate this tab
 
# A B C D E F G H I J K L M N O P Q R S T U V W X Y Z