Song name
# A B C D E F G H I J K L M N O P Q R S T U V W X Y Z

Wonders - All My Only Dreams tab

This is how I play the song, although there are a few things I did not include, like 
more lead to the song. I hope that you get what I get out of this awesome tune!

Special Chords:
D+ -- xx0332
D7*-- xx4532
A+ -- xx7665

Opening Riff

]---2-2-2--2-0--------------3------5-7-5-----|
]---3------3---3--------------3----5-5---5---|
]---2------4-----4--------------4--6-6-----6-|
]-0--------4-------4------5--------7-7-------|
]----------2------------5--------------------|
]---------------------3----------------------|

]---2-2-2--2-0--------------3--------------5-|
]---3------3---3--------------3--------5---6-|
]---2------4-----4--------------4----6---6-6-|
]-0--------4-------4------5--------7-------7-|
]----------2------------5--------------------|
]---------------------3----------------------|

Riff 1
]5-7-5-----|
]5-5---5---|
]6-6-----6-|
]7-7-------|
]----------|
]----------|

Riff 2
[--------5-|
[----5---6-|
[--6---6-6-|
[7-------7-|
[----------|
[----------|

Riff 3 (Guitar 2 over the chords)
[-------------------------------------------------------------|
[-----7--------------7--------------7---------------7---------|
[---7---7---7------7---7---7------7---7---7-------7---7----7--|
[-7-------7----7h8-------8----8h9-------9----9h10-------10----|
[-------------------------------------------------------------|
[-------------------------------------------------------------|

Outro Riff
]---2-2-2--2-0------------3------3---2-|
]---3------3---3----------3------3---3-|
]---2------4-----4--------4------3---2-|
]-0--------4-------4------5------5---0-|
]----------2------------5------5-------|
]---------------------3------3---------|

<--[verse]-->
D      Bm          G                A(riff 1)
Every night I pray, I'll have you here someday.
D              Bm            G               A(riff 2)
I'll count the stars tonight, and hope with all my might.

<--[pre-chorus]-->
F#m         Bm           G                 E7
That when I close my eyes, you'll be right by my side.

<--[chorus]-->
(Use Riff 3 for Lead Guitar or by itself if you want)
D         D+             Bm               D7*                    G
If I could only have one wish you'd be the girl whose lips I'd kiss
       A     D
All my only dreams.

<--[Break - Use Verse Chords]-->
Solo (This is the version on the movie, not the soundtrack version)
[--------------------------------------------------------------|
[--------------------------------------------------------------|
[--------------------------------------------------------------|
[0-4-4-4-4-2-0--0-0-0-0---------0-4-4-4-4-2-0--0-0-0-0---------|
[-----------------------4-2-0--------------------------4-2-0---|
[--------------------------------------------------------------|

<--[pre-chorus]-->
And when I close my eyes, you'll be right by my side.

<--[chorus]-->
If I could have just one request, stay with me girl I confess.

All my only dreams.

<--[bridge]-->
Gm                 D     E       E7          A     A+
Any waking hour it seems, I only have you in my dreams

<--[verse]-->
So every night I pray, I'll have you here one day.

I'll count the stars tonight, and hope with all my might.

<--[pre-chorus]-->
That when I close my eyes, you'll be right by my side.

<--[chorus]-->
If I could have just one request, stay with me girl I confess.

G     A     (outro riff)
All my only dreams.
Tap to rate this tab
 
# A B C D E F G H I J K L M N O P Q R S T U V W X Y Z